Oops, an error
Loading. Please wait.

Swallow My Pride Bass Tab

859 views 1 this week
no commentswrite comment
1 2 3 4 5
please rate
add to favorites
launch autoscroll
font size
0
reset
guitar tuner
Autoscroll
slow
fast
+/-
esc
set tempo
stop
Help us to improve Ultimate-Guitar.com Take our survey!
×
Intro                           x2
G---------------------------------|
D---------------------------------|
A---------------------------------|
E-7-7-7-7-0-0-0-0-2-2-2-2-7-7-7-7-|

Verse           x3                                                  x4
G-----------------|-----------------|---------------------------------|
D-----------------|-----------------|---------------------------------|
A-----------------|-7-7-7-7-9-9-9-9-|-----------------7-7-7-7-9-9-9-9-|
E-7-7-7-7-7-7-7-7-|-----------------|-7-7-7-7-7-7-7-7-----------------|

Pre-Chorus                         Chorus         x3
G---------------------------------|-----------------|
D---------------------------------|-----------------|
A-----------------7-7-7-7-7-7-7-7-|---------7-7-7-7-|
E-4-4-4-4-4-4-4-4-----------------|-7-7-7-7---------|

Intro                           x2
G---------------------------------|
D---------------------------------|
A---------------------------------|
E-7-7-7-7-0-0-0-0-2-2-2-2-7-7-7-7-|

Verse           x3                                                  x4
G-----------------|-----------------|---------------------------------|
D-----------------|-----------------|---------------------------------|
A-----------------|-7-7-7-7-9-9-9-9-|-----------------7-7-7-7-9-9-9-9-|
E-7-7-7-7-7-7-7-7-|-----------------|-7-7-7-7-7-7-7-7-----------------|

Pre-Chorus                         Chorus         x3
G---------------------------------|-----------------|
D---------------------------------|-----------------|
A-----------------7-7-7-7-7-7-7-7-|---------7-7-7-7-|
E-4-4-4-4-4-4-4-4-----------------|-7-7-7-7---------|

Bridge          
G---------------------------------------------------------------------|
D---------------------------------------------------------------------|
A-7-7-7-7-7-7-7-7---------------------7-7-7-7-7-7-7-7-9-9-9-9-9-9-9-9-|
E-----------------7-7-7-7-7-7-7-7-7-7---------------------------------|

Intro                           x2
G---------------------------------|
D---------------------------------|
A---------------------------------|
E-7-7-7-7-0-0-0-0-2-2-2-2-7-7-7-7-|

Verse           x3                                                  x4
G-----------------|-----------------|---------------------------------|
D-----------------|-----------------|---------------------------------|
A-----------------|-7-7-7-7-9-9-9-9-|-----------------7-7-7-7-9-9-9-9-|
E-7-7-7-7-7-7-7-7-|-----------------|-7-7-7-7-7-7-7-7-----------------|

Pre-Chorus                         Chorus         x3
G---------------------------------|-----------------|
D---------------------------------|-----------------|
A-----------------7-7-7-7-7-7-7-7-|---------7-7-7-7-|
E-4-4-4-4-4-4-4-4-----------------|-7-7-7-7---------|

Outro                           x2
G---------------------------------|
D---------------------------------|
A---------------------------------|
E-7-7-7-7-0-0-0-0-2-2-2-2-7-7-7-7-|
Suggest correction
Give kudos to tab author, rate the tab!
1 2 3 4 5
comments
print report bad tab
guest
You may want to rate the tab now too:
select rating
Please do not post tabs as comments. Select "correction" instead!