Oops, an error
Loading. Please wait.
We have an official Swallow My Pride tab made by UG professional guitarists. Check out the tab »
×
by Ramones
1,057 views 9 this week
no commentswrite comment
1 2 3 4 5
3 more votes to show rating
add to favorites
×
Save as Personal and add changes to this tab that will be seen only by you. Learn more ›
×
You can save this tab as Personal to edit and correct it or add notes. All changes will be seen only by you. Learn more »
save as personal
new!
launch autoscroll
font size
0
reset
guitar tuner
Autoscroll
slow
fast
+/-
esc
set tempo
stop
Author
Difficulty
Intro                           
G|------------------------------------|------------------------------------|
D|------------------------------------|------------------------------------|
A|------------------------------------|------------------------------------|
E|-7-7-7-7--0-0-0-0--2-2-2-2--7-7-7-7-|-7-7-7-7--0-0-0-0--2-2-2-2--7-7-7-7-|

Verse                          
G|-------------------------------------------------------------------|
D|-------------------------------------------------------------------|
A|---------------------------------------------------7-7-7-7-9-9-9-9-|
E|-7-7-7-7-7-7-7-7--7-7-7-7-7-7-7-7--7-7-7-7-7-7-7-7-----------------|

G|---------------------------------|---------------------------------|---------------------------------|
D|---------------------------------|---------------------------------|---------------------------------|
A|-----------------7-7-7-7-9-9-9-9-|-----------------7-7-7-7-9-9-9-9-|-----------------7-7-7-7-9-9-9-9-|
E|-7-7-7-7-7-7-7-7-----------------|-7-7-7-7-7-7-7-7-----------------|-7-7-7-7-7-7-7-7-----------------|


Chorus                              ("Swallowing My Pride- Oh Yeah...") 
G|---------------------------------|---------------------------------------------------|
D|---------------------------------|---------------------------------------------------|
A|-----------------7-7-7-7-7-7-7-7-|---------7-7-7-7----------7-7-7-7----------7-7-7-7-|
E|-4-4-4-4-4-4-4-4-----------------|-7-7-7-7----------7-7-7-7----------7-7-7-7---------|


Intro                           
G|------------------------------------|------------------------------------|
D|------------------------------------|------------------------------------|
A|------------------------------------|------------------------------------|
E|-7-7-7-7--0-0-0-0--2-2-2-2--7-7-7-7-|-7-7-7-7--0-0-0-0--2-2-2-2--7-7-7-7-|


Verse                          
G|-------------------------------------------------------------------|
D|-------------------------------------------------------------------|
A|---------------------------------------------------7-7-7-7-9-9-9-9-|
E|-7-7-7-7-7-7-7-7--7-7-7-7-7-7-7-7--7-7-7-7-7-7-7-7-----------------|

G|---------------------------------|---------------------------------|---------------------------------|
D|---------------------------------|---------------------------------|---------------------------------|
A|-----------------7-7-7-7-9-9-9-9-|-----------------7-7-7-7-9-9-9-9-|-----------------7-7-7-7-9-9-9-9-|
E|-7-7-7-7-7-7-7-7-----------------|-7-7-7-7-7-7-7-7-----------------|-7-7-7-7-7-7-7-7-----------------|


Chorus                              ("Swallowing My Pride- Oh Yeah...") 
G|---------------------------------|---------------------------------------------------|
D|---------------------------------|---------------------------------------------------|
A|-----------------7-7-7-7-7-7-7-7-|---------7-7-7-7----------7-7-7-7----------7-7-7-7-|
E|-4-4-4-4-4-4-4-4-----------------|-7-7-7-7----------7-7-7-7----------7-7-7-7---------|


Bridge ("Oh Yeah, Oh Yeah, Oh Yeah, Oh Yeah...")          
G|---------------------------------------------------------------------|
D|---------------------------------------------------------------------|
A|-7-7-7-7-7-7-7-7---------------------7-7-7-7-7-7-7-7-9-9-9-9-9-9-9-9-|
E|-----------------7-7-7-7-7-7-7-7-7-7---------------------------------|


Intro                           
G|------------------------------------|------------------------------------|
D|------------------------------------|------------------------------------|
A|------------------------------------|------------------------------------|
E|-7-7-7-7--0-0-0-0--2-2-2-2--7-7-7-7-|-7-7-7-7--0-0-0-0--2-2-2-2--7-7-7-7-|


Verse                          
G|-------------------------------------------------------------------|
D|-------------------------------------------------------------------|
A|---------------------------------------------------7-7-7-7-9-9-9-9-|
E|-7-7-7-7-7-7-7-7--7-7-7-7-7-7-7-7--7-7-7-7-7-7-7-7-----------------|

G|---------------------------------|---------------------------------|---------------------------------|
D|---------------------------------|---------------------------------|---------------------------------|
A|-----------------7-7-7-7-9-9-9-9-|-----------------7-7-7-7-9-9-9-9-|-----------------7-7-7-7-9-9-9-9-|
E|-7-7-7-7-7-7-7-7-----------------|-7-7-7-7-7-7-7-7-----------------|-7-7-7-7-7-7-7-7-----------------|


Chorus                              ("Swallowing My Pride- Oh Yeah...") 
G|---------------------------------|---------------------------------------------------|
D|---------------------------------|---------------------------------------------------|
A|-----------------7-7-7-7-7-7-7-7-|---------7-7-7-7----------7-7-7-7----------7-7-7-7-|
E|-4-4-4-4-4-4-4-4-----------------|-7-7-7-7----------7-7-7-7----------7-7-7-7---------|


Intro                           
G|------------------------------------|------------------------------------|
D|------------------------------------|------------------------------------|
A|------------------------------------|------------------------------------|
E|-7-7-7-7--0-0-0-0--2-2-2-2--7-7-7-7-|-7-7-7-7--0-0-0-0--2-2-2-2--7-7-7-7-|
Suggest correction
Give kudos to tab author, rate the tab!
1 2 3 4 5
comments
print report bad tab
guest
You may want to rate the tab now too:
select rating
Wanna post a correction for this tab? Suggest correction