Oops, an error
Loading. Please wait.

Take It As It Comes Bass Tab

40 views 1 this week
no commentswrite comment
1 2 3 4 5
2 more votes to show rating
add to favorites
launch autoscroll
font size
0
reset
guitar tuner
Autoscroll
slow
fast
+/-
esc
set tempo
stop
Help us to improve Ultimate-Guitar.com Take our survey!
×
Author
Difficulty
Tuning
intermediate
E A D G B E
Verse
G-----------------5-5-5-5---------|-----------------5-5-5-5---------|
D---------3-3-3-3-----------------|---------3-3-3-3-----------------|
A-5-5-5-5-----------------5-5-5-5-|-5-5-5-5-----------------5-5-5-5-|
E---------------------------------|---------------------------------|


Chorus ("Take it easy baby, Take it as it comes...")
G------------------------------------------------------------------------------|
D------------------------------------------------------------------------------|
A-----6-6--5-5-5-5-5-5-5-5------6-6--5-5-5-5-5-5-5-5-----6-6--5-5-5-5-5-5-5-5--|
E-3-3-----------------------3-3----------------------3-3-----------------------|

                                                     (Organ Part)             x4
G---------------------------------------------------|---------------------------|-----------------|
D---------------------------------------------------|---------------------------|-----------------|
A-----6-6--5-5-5-5-5-5-5-5-----6-6--5-5-5-5-5-5-5-5-|-----6-6--5-5-5-5-5-5-5-5--|-----------------|
E-3-3----------------------3-3----------------------|-3-3-----------------------|-3-------3-------|


Verse
G-----------------5-5-5-5---------|-----------------5-5-5-5---------|
D---------3-3-3-3-----------------|---------3-3-3-3-----------------|
A-5-5-5-5-----------------5-5-5-5-|-5-5-5-5-----------------5-5-5-5-|
E---------------------------------|---------------------------------|


Chorus ("Take it easy baby, Take it as it comes...")
G------------------------------------------------------------------------------|
D------------------------------------------------------------------------------|
A-----6-6--5-5-5-5-5-5-5-5------6-6--5-5-5-5-5-5-5-5-----6-6--5-5-5-5-5-5-5-5--|
E-3-3-----------------------3-3----------------------3-3-----------------------|
   
                                                     (Organ Part)             x4
G---------------------------------------------------|---------------------------|
D---------------------------------------------------|---------------------------|
A-----6-6--5-5-5-5-5-5-5-5-----6-6--5-5-5-5-5-5-5-5-|-----6-6--5-5-5-5-5-5-5-5--|
E-3-3----------------------3-3----------------------|-3-3-----------------------|


Verse
G----3-7-------------7-5-----|----3-7-------------7-5-----|----3-7-------------7-5-----|
D--5-------5-8---4-7-----7---|--5-------5-8---4-7-----7---|--5-------5-8---4-7-----7---|
A--------6-----5-------------|--------6-----5-------------|--------6-----5-------------|
E----------------------------|----------------------------|----------------------------|

G----3-7-------------7-5-----|----3-7-------------7-5-----|----3-7-------------7-5-----|
D--5-------5-8---4-7-----7---|--5-------5-8---4-7-----7---|--5-------5-8---4-7-----7---|
A--------6-----5-------------|--------6-----5-------------|--------6-----5-------------|
E----------------------------|----------------------------|----------------------------|


Final Chorus
G------------------------------------------------------------------------------|
D------------------------------------------------------------------------------|
A-----6-6--5-5-5-5-5-5-5-5------6-6--5-5-5-5-5-5-5-5-----6-6--5-5-5-5-5-5-5-5--|
E-3-3-----------------------3-3----------------------3-3-----------------------|

G------------------------------------------------------------------------------|-----------------------|
D------------------------------------------------------------------------------|-----------------------|
A-----6-6--5-5-5-5-5-5-5-5------6-6--5-5-5-5-5-5-5-5-----6-6--5-5-5-5-5-5-5-5--|---------6-6-6-6-------|
E-3-3-----------------------3-3----------------------3-3-----------------------|-3-3-3-3---------3-----|
Suggest correction
Give kudos to tab author, rate the tab!
1 2 3 4 5
comments
print report bad tab
guest
You may want to rate the tab now too:
select rating
Wanna post a correction for this tab? Suggest correction