Oops, an error
Loading. Please wait.

Take It As It Comes Tab

28 views 3 this week
no commentswrite comment
1 2 3 4 5
2 more votes to show rating
add to favorites
launch autoscroll
font size
0
reset
how to read this tab
guitar tuner
Autoscroll
slow
fast
+/-
esc
set tempo
stop
Help us to improve Ultimate-Guitar.com Take our survey!
×
Author
Difficulty
Verse
E|----------------------------------------|----------------------------------------|
B|----------------------------------------|----------------------------------------|
G|-7-7-7-7------------------------7-7-7-7-|-7-7-7-7------------------------7-7-7-7-|
D|-7-7-7-7--10-10-10-10--5-5-5-5--7-7-7-7-|-7-7-7-7--10-10-10-10--5-5-5-5--7-7-7-7-|
A|-5-5-5-5--8--8--8--8---3-3-3-3--5-5-5-5-|-5-5-5-5--8--8--8--8---3-3-3-3--5-5-5-5-|
E|----------------------------------------|----------------------------------------|


Chorus ("Take it easy baby, Take it as it comes...")
E|----------------------------------------------------------------------------------|
B|----------------------------------------------------------------------------------|
G|-----------7-7-7-7-7-7-7-7------------7-7-7-7-7-7-7-7------------7-7-7-7-7-7-7-7--|
D|------8-8--7-7-7-7-7-7-7-7-------8-8--7-7-7-7-7-7-7-7-------8-8--7-7-7-7-7-7-7-7--|
A|-5-5--6-6--5-5-5-5-5-5-5-5--5-5--6-6--5-5-5-5-5-5-5-5--5-5--6-6--5-5-5-5-5-5-5-5--|
E|-3-3------------------------3-3------------------------3-3------------------------|

                                                         (Organ Part)             x4
E|------------------------------------------------------|----------------------------|-----------------|
B|------------------------------------------------------|----------------------------|-----------------|
G|-----------7-7-7-7-7-7-7-7------------7-7-7-7-7-7-7-7-|-----------7-7-7-7-7-7-7-7--|-----------------|
D|------8-8--7-7-7-7-7-7-7-7-------8-8--7-7-7-7-7-7-7-7-|------8-8--7-7-7-7-7-7-7-7--|-5-------5-------|
A|-5-5--6-6--5-5-5-5-5-5-5-5--5-5--6-6--5-5-5-5-5-5-5-5-|-5-5--6-6--5-5-5-5-5-5-5-5--|-5-------5-------|
E|-3-3------------------------3-3-----------------------|-3-3------------------------|-3-------3-------|


Verse
E|----------------------------------------|----------------------------------------|
B|----------------------------------------|----------------------------------------|
G|-7-7-7-7------------------------7-7-7-7-|-7-7-7-7------------------------7-7-7-7-|
D|-7-7-7-7--10-10-10-10--5-5-5-5--7-7-7-7-|-7-7-7-7--10-10-10-10--5-5-5-5--7-7-7-7-|
A|-5-5-5-5--8--8--8--8---3-3-3-3--5-5-5-5-|-5-5-5-5--8--8--8--8---3-3-3-3--5-5-5-5-|
E|----------------------------------------|----------------------------------------|


Chorus ("Take it easy baby, Take it as it comes...")
E|----------------------------------------------------------------------------------|
B|----------------------------------------------------------------------------------|
G|-----------7-7-7-7-7-7-7-7------------7-7-7-7-7-7-7-7------------7-7-7-7-7-7-7-7--|
D|------8-8--7-7-7-7-7-7-7-7-------8-8--7-7-7-7-7-7-7-7-------8-8--7-7-7-7-7-7-7-7--|
A|-5-5--6-6--5-5-5-5-5-5-5-5--5-5--6-6--5-5-5-5-5-5-5-5--5-5--6-6--5-5-5-5-5-5-5-5--|
E|-3-3------------------------3-3------------------------3-3------------------------|

                                                         (Organ Part)             x4
E|------------------------------------------------------|----------------------------|-----------------|
B|------------------------------------------------------|----------------------------|-----------------|
G|-----------7-7-7-7-7-7-7-7------------7-7-7-7-7-7-7-7-|-----------7-7-7-7-7-7-7-7--|-----------------|
D|------8-8--7-7-7-7-7-7-7-7-------8-8--7-7-7-7-7-7-7-7-|------8-8--7-7-7-7-7-7-7-7--|-5-------5-------|
A|-5-5--6-6--5-5-5-5-5-5-5-5--5-5--6-6--5-5-5-5-5-5-5-5-|-5-5--6-6--5-5-5-5-5-5-5-5--|-5-------5-------|
E|-3-3------------------------3-3-----------------------|-3-3------------------------|-3-------3-------|


3rd Verse (No Guitar- Bass Only)
G|----3-7-------------7-5-----|----3-7-------------7-5-----|----3-7-------------7-5-----|
D|--5-------5-8---4-7-----7-5-|--5-------5-8---4-7-----7-5-|--5-------5-8---4-7-----7-5-|
A|----------------------------|----------------------------|----------------------------|
E|----------------------------|----------------------------|----------------------------|

G|----3-7-------------7-5-----|----3-7-------------7-5-----|----3-7-------------7-5-----|
D|--5-------5-8---4-7-----7-5-|--5-------5-8---4-7-----7-5-|--5-------5-8---4-7-----7-5-|
A|----------------------------|----------------------------|----------------------------|
E|----------------------------|----------------------------|----------------------------|


Final Chorus
E|----------------------------------------------------------------------------------|
B|----------------------------------------------------------------------------------|
G|-----------7-7-7-7-7-7-7-7------------7-7-7-7-7-7-7-7------------7-7-7-7-7-7-7-7--|
D|------8-8--7-7-7-7-7-7-7-7-------8-8--7-7-7-7-7-7-7-7-------8-8--7-7-7-7-7-7-7-7--|
A|-5-5--6-6--5-5-5-5-5-5-5-5--5-5--6-6--5-5-5-5-5-5-5-5--5-5--6-6--5-5-5-5-5-5-5-5--|
E|-3-3------------------------3-3------------------------3-3------------------------|

E|----------------------------------------------------------------------------------|-----------------------|
B|----------------------------------------------------------------------------------|-----------------------|
G|-----------7-7-7-7-7-7-7-7------------7-7-7-7-7-7-7-7------------7-7-7-7-7-7-7-7--|-----------------------|
D|------8-8--7-7-7-7-7-7-7-7-------8-8--7-7-7-7-7-7-7-7-------8-8--7-7-7-7-7-7-7-7--|----------8-8-8-8------|
A|-5-5--6-6--5-5-5-5-5-5-5-5--5-5--6-6--5-5-5-5-5-5-5-5--5-5--6-6--5-5-5-5-5-5-5-5--|-5-5-5-5--6-6-6-6--5---|
E|-3-3------------------------3-3------------------------3-3------------------------|-3-3-3-3-----------3---|
Suggest correction
Give kudos to tab author, rate the tab!
1 2 3 4 5
comments
print report bad tab
guest
You may want to rate the tab now too:
select rating
Wanna post a correction for this tab? Suggest correction