Oops, an error
Loading. Please wait.

Teenage Labotomy Bass Tab

1,070 views 1 this week
1 commentread comment
1 2 3 4 5
worth learning
x 4
add to favorites
launch autoscroll
font size
0
reset
guitar tuner
Tab Pro tools
  • play this tab
  • loop segment
  • change instrument
  • show fretboard
  • metronome
×
Best way to learn
"Teenage Labotomy"
Autoscroll
slow
fast
+/-
esc
set tempo
stop
artist: The Ramones 
song: Teenage Labotomy 
album: Rocket to Russia 
tabbed by: Brady Newbill 
regular tuning(E,A,D,G) 
riff 1 
G--------------------------------- 
D--------------------------------- 
A-----------7-9------------7-9---- 
E-7-77777777-----7-77777777------- 

riff 2 
G----------------------- 
D----------------------- 
A-7-55--7-55----7-55---- 
E-----5-----5-------5--- 

riff 3 
G------------------------------ 
D------------------------------ 
A----5-5-5-5-5-5-55----55555--- 
E-5-3---------------5-3-------- 

verse 
G---------------------| 
D---------------------| 
A-----------7-7777777-| 
E-5-5555555-----------| 

if there's aproblem e-mail me at bn85@bellsouth.net.

comments
print report bad tab
1 comment total.
0 reply
misfitsphreek wrote on February 18 2007, 11:01 am

This is missing the opening notes for riff 1; which should look like this:

A-7-9-------------------
E-----7--7-7-7-7-7-7-7-7 etc

Just a minor problem, but still...

I want to post or [tab]
guest
You may want to rate the tab now too:
select rating
Please do not post tabs as comments. Select "correction" instead!