Oops, an error
Loading. Please wait.
We have an official Teenage Lobotomy tab made by UG professional guitarists. Check out the tab »
×
by Ramones
6,814 views 1 this week
2 commentsread comments
1 2 3 4 5
x 5
add to favorites
×
Save as Personal and add changes to this tab that will be seen only by you. Learn more ›
×
You can save this tab as Personal to edit and correct it or add notes. All changes will be seen only by you. Learn more »
launch autoscroll
font size
0
reset
guitar tuner
backing track
0:00
0:00
edit
Autoscroll
slow
fast
+/-
esc
set tempo
stop
Author
-------------------------------------------------------------------------------
			     Teenage Lobotomy - The Ramones
-------------------------------------------------------------------------------

Tabbed By :bennyhong
e-mail: bennyhong01@yahoo.com
my first tab e-mail me if i got something wrong
Tuning:Standard

G|-------------------------|----------------------------------|
D|-------------------------|----------------------------------|
A|7-9----------7-9---------|-9-9-75--9-9-75--9-9-75--9-9-75---|
E|----77777777-----77777777|-------5-------5-------5-------5--|

G|------------------------|------------------------------------------------------|
D|------------------------|------------------------------------------------------|
A|---55555555-----55555555|----------77777777----------77777777----------777777--|
E|5-3---------5-3---------|55555555----------55555555----------55555555----------|

G|-------------------------|----------------------------------|
D|-------------------------|----------------------------------|
A|7-9----------7-9---------|-9-9-75--9-9-75--9-9-75--9-9-75---|
E|----77777777-----77777777|-------5-------5-------5-------5--|


G|------------------------|------------------------------------------------------|
D|------------------------|------------------------------------------------------|
A|---55555555-----55555555|----------77777777----------77777777----------777777--|
E|5-3---------5-3---------|55555555----------55555555----------55555555----------|

G|-------------------------|----------------------------------|
D|-------------------------|----------------------------------|
A|7-9----------7-9---------|-9-9-75--9-9-75--9-9-75--9-9-75---|
E|----77777777-----77777777|-------5-------5-------5-------5--|


G|---------------------------------|----------DRUM----------------------------------|
D|---------------------------------|------------SOLO--------------------------------|
A|---55555555-----55555555---------|------------AND---------------------------------|
E|5-3---------5-3------------------|-------------CHANTING---------------------------|

G|-------------------------|----------------------------------|
D|-------------------------|----------------------------------|
A|7-9----------7-9---------|-9-9-75--9-9-75--9-9-75--9-9-75---|
E|----77777777-----77777777|-------5-------5-------5-------5--|

G|------------------------|------------------------------------------------------|
D|------------------------|------------------------------------------------------|
A|---55555555-----55555555|----------77777777----------77777777----------777777--|
E|5-3---------5-3---------|55555555----------55555555----------55555555----------|

G|-------------------------|--------------------------------------------------|
D|-------------------------|--------------------------------------------------|
A|7-9----------7-9---------|-9-9-75--9-9-75--9-9-75--9-9-75-------------------|
E|----77777777-----77777777|-------5-------5-------5-------5------------------|

G|-------------------------------------------------------------------------------|
D|-------------------------------------------------------------------------------|
A|---55555555-----5--------------------------------------------------------------|
E|5-3---------5-3----------------------------------------------------------------|
when doing verse (55555555-77777777) immediatly after 3rd string of sevens
(777777)start with the next part (7-9-77777777--|
Suggest correction
Creating personal tab
Creating personal tab
You can edit any tab online and save it as your Personal.

You can edit, replace or remove any tab part or add personal notes – all changes will be seen only by you.

Personal tabs can be accessed anytime from any device, even offline.
Learn more »
comments
print report bad tab
2 comments total.
+1 reply
iq01 90 Sep 12, 2008 07:00 PM

great tab
but for the 2nd part of the 1st line i play

------------------
------------------
--7--7-7-7-5------
-------------5----
but the rest is great.
good job.

0 reply
Uunster 52 Nov 16, 2009 06:01 AM

Perfect! Plays Right Into The Guitar!

guest
You may want to rate the tab now too:
select rating
Wanna post a correction for this tab? Suggest correction