Oops, an error
Loading. Please wait.

The Job That Ate My Brain Bass Tab

10 views 1 this week
no commentswrite comment
1 2 3 4 5
3 more votes to show rating
add to favorites
launch autoscroll
font size
0
reset
guitar tuner
Autoscroll
slow
fast
+/-
esc
set tempo
stop
Help us to improve Ultimate-Guitar.com Take our survey!
×
Author
Difficulty
novice
------------------------------------------------------------------------------
               The Job That Ate My Brain - The Ramones
------------------------------------------------------------------------------

Tabbed by: ChrisT

From the Album: The Chrysalis Years (2002)

Tuning: Standard

Intro                       Repeat x4
G|-----------------------------------|
D|o------------------7--7-----------o|
A|o--5h7-7-7-7-7-7-7-------5--5-5---o|
E|-----------------------------------|

Verse
G|----------------------------------------------------------------------|
D|o--------------------------------------------------------------------o|
A|o--------------------------------------------------------------------o|
E|---5-5-5-5-5-5-5-5-4-4-4-4-4-4-4-4-3-3-3-3-3-3-3-3-2-2-2-2-2-2-2-2----|

Chorus
G|----------------------------------------------------------------------|
D|----------------------------------------------------------------------|
A|---5-5-5-5-5-5-5-5-9-9-9-9-9-9-9-9-5-5-5-5-5-5-5-5-9-9-9-9-9-9-9-9----|
E|----------------------------------------------------------------------|

G|----------------------------------------------------------------------|
D|----------------------------------------------------------------------|
A|---5-5-5-5-5-5-5-5-9-9-9-9-9-9-9-9------------------------------------|
E|-----------------------------------7-7-7-7-7-7-7-7-7-7-7-7-7-7-7-7----|

Verse
G|----------------------------------------------------------------------|
D|o--------------------------------------------------------------------o|
A|o--------------------------------------------------------------------o|
E|---5-5-5-5-5-5-5-5-4-4-4-4-4-4-4-4-3-3-3-3-3-3-3-3-2-2-2-2-2-2-2-2----|

Chorus
G|----------------------------------------------------------------------|
D|----------------------------------------------------------------------|
A|---5-5-5-5-5-5-5-5-9-9-9-9-9-9-9-9-5-5-5-5-5-5-5-5-9-9-9-9-9-9-9-9----|
E|----------------------------------------------------------------------|

G|----------------------------------------------------------------------|
D|----------------------------------------------------------------------|
A|---5-5-5-5-5-5-5-5-9-9-9-9-9-9-9-9------------------------------------|
E|-----------------------------------7-7-7-7-7-7-7-7-7-7-7-7-7-7-7-7----|

                            Repeat x4
G|-----------------------------------|
D|o------------------7--7-----------o|
A|o--5h7-7-7-7-7-7-7-------5--5-5---o|
E|-----------------------------------|

Bridge                      Repeat x4
G|-----------------------------------|
D|o---------------------------------o|
A|o------------------1--1--4--4-4---o|
E|---3---3-3-3-3-3-3-----------------|

Verse
G|----------------------------------------------------------------------|
D|o--------------------------------------------------------------------o|
A|o--------------------------------------------------------------------o|
E|---5-5-5-5-5-5-5-5-4-4-4-4-4-4-4-4-3-3-3-3-3-3-3-3-2-2-2-2-2-2-2-2----|

Chorus
G|----------------------------------------------------------------------|
D|----------------------------------------------------------------------|
A|---5-5-5-5-5-5-5-5-9-9-9-9-9-9-9-9-5-5-5-5-5-5-5-5-9-9-9-9-9-9-9-9----|
E|----------------------------------------------------------------------|

G|----------------------------------------------------------------------|
D|----------------------------------------------------------------------|
A|---5-5-5-5-5-5-5-5-9-9-9-9-9-9-9-9------------------------------------|
E|-----------------------------------7-7-7-7-7-7-7-7-7-7-7-7-7-7-7-7----|

Verse
G|----------------------------------------------------------------------|
D|o--------------------------------------------------------------------o|
A|o--------------------------------------------------------------------o|
E|---5-5-5-5-5-5-5-5-4-4-4-4-4-4-4-4-3-3-3-3-3-3-3-3-2-2-2-2-2-2-2-2----|

Chorus
G|----------------------------------------------------------------------|
D|----------------------------------------------------------------------|
A|---5-5-5-5-5-5-5-5-9-9-9-9-9-9-9-9-5-5-5-5-5-5-5-5-9-9-9-9-9-9-9-9----|
E|----------------------------------------------------------------------|

G|----------------------------------------------------------------------|
D|----------------------------------------------------------------------|
A|---5-5-5-5-5-5-5-5-9-9-9-9-9-9-9-9------------------------------------|
E|-----------------------------------7-7-7-7-7-7-7-7-7-7-7-7-7-7-7-7----|

Chorus
G|----------------------------------------------------------------------|
D|----------------------------------------------------------------------|
A|---5-5-5-5-5-5-5-5-9-9-9-9-9-9-9-9-5-5-5-5-5-5-5-5-9-9-9-9-9-9-9-9----|
E|----------------------------------------------------------------------|

G|----------------------------------------------------------------------|
D|----------------------------------------------------------------------|
A|---5-5-5-5-5-5-5-5-9-9-9-9-9-9-9-9------------------------------------|
E|-----------------------------------7-7-7-7-7-7-7-7-7-7-7-7-7-7-7-7----|

                            Repeat x3
G|-----------------------------------|------------------------------|
D|o------------------7--7-----------o|-------------------7--7-------|
A|o--5h7-7-7-7-7-7-7-------5--5-5---o|---5h7-7-7-7-7-7-7-------5----|
E|-----------------------------------|------------------------------|



Suggest correction
Give kudos to tab author, rate the tab!
1 2 3 4 5
comments
print report bad tab
guest
You may want to rate the tab now too:
select rating
Wanna post a correction for this tab? Suggest correction