Oops, an error
Loading. Please wait.

Tomorrow She Goes Away Bass Tab

version 1
version 1

Whole song

Interactive

34 views 3 this week
no commentswrite comment
1 2 3 4 5
3 more votes to show rating
add to favorites
launch autoscroll
font size
0
reset
guitar tuner
Autoscroll
slow
fast
+/-
esc
set tempo
stop
Help us to improve Ultimate-Guitar.com Take our survey!
×
Author
Difficulty
novice
------------------------------------------------------------------------------
                    Tomorrow she goes away - The Ramones
------------------------------------------------------------------------------

Tabbed by: ChrisT

From the Album: The Chrysalis Years (2002)

Tuning: Standard

Intro                          Repeat x4
G|--------------------------------------|
D|o------------------------------------o|
A|o------------------8-8-8-5--5--------o|
E|---5-5-5-5-5-5-5-5-------------8-8----|

Verse                          Repeat x8
G|--------------------------------------|
D|o------------------------------------o|
A|o------------------8-8-8-5--5--------o|
E|---5-5-5-5-5-5-5-5-------------8-8----|

Chorus
G|------------------------------------------------------------------------------|
D|------------------------------------------------------------------------------|
A|---8-8-8-8-8-8-8-8-10-10-10-10-10-10-10-10------------------------------------|
E|-------------------------------------------8-8-8-8-8-8-8-8-8-8-8-8-8-8-8-8----|

G|------------------------------------------------------------------------------|
D|------------------------------------------------------------------------------|
A|---8-8-8-8-8-8-8-8-10-10-10-10-10-10-10-10------------------------------------|
E|-------------------------------------------5-5-5-5-5-5-5-5-5-5-5-5-5-5-5-5----|

G|------------------------------------------------------------------------------|
D|------------------------------------------------------------------------------|
A|---8-8-8-8-8-8-8-8-10-10-10-10-10-10-10-10------------------------------------|
E|-------------------------------------------8-8-8-8-8-8-8-8-8-8-8-8-8-8-8-8----|

G|----------------------------------------------|
D|----------------------------------------------|
A|---8-8-8-8-8-8-8-8-10-10-10-10-10-10-10-10----|
E|----------------------------------------------|

G|--------------------------------------|
D|o------------------------------------o|
A|o------------------8-8-8-5--5--------o|
E|---5-5-5-5-5-5-5-5-------------8-8----|

Verse                          Repeat x4
G|--------------------------------------|
D|o------------------------------------o|
A|o------------------8-8-8-5--5--------o|
E|---5-5-5-5-5-5-5-5-------------8-8----|

Chorus
G|------------------------------------------------------------------------------|
D|------------------------------------------------------------------------------|
A|---8-8-8-8-8-8-8-8-10-10-10-10-10-10-10-10------------------------------------|
E|-------------------------------------------8-8-8-8-8-8-8-8-8-8-8-8-8-8-8-8----|

G|------------------------------------------------------------------------------|
D|------------------------------------------------------------------------------|
A|---8-8-8-8-8-8-8-8-10-10-10-10-10-10-10-10------------------------------------|
E|-------------------------------------------5-5-5-5-5-5-5-5-5-5-5-5-5-5-5-5----|

G|------------------------------------------------------------------------------|
D|------------------------------------------------------------------------------|
A|---8-8-8-8-8-8-8-8-10-10-10-10-10-10-10-10------------------------------------|
E|-------------------------------------------8-8-8-8-8-8-8-8-8-8-8-8-8-8-8-8----|

G|----------------------------------------------|
D|----------------------------------------------|
A|---8-8-8-8-8-8-8-8-10-10-10-10-10-10-10-10----|
E|----------------------------------------------|

G|--------------------------------------|
D|o------------------------------------o|
A|o------------------8-8-8-5--5--------o|
E|---5-5-5-5-5-5-5-5-------------8-8----|

Guitar Solo
G|----------------------------------------------------------------|
D|o--------------------------------------------------------------o|
A|o--------8--8-8-------8--8-8-----------------------------------o|
E|---5--5---------5--5---------1-1-1-1-1-1-1-1-3-3-3-3-3-3-3-3----|

Verse                          Repeat x4
G|--------------------------------------|
D|o------------------------------------o|
A|o------------------8-8-8-5--5--------o|
E|---5-5-5-5-5-5-5-5-------------8-8----|

Chorus
G|------------------------------------------------------------------------------|
D|------------------------------------------------------------------------------|
A|---8-8-8-8-8-8-8-8-10-10-10-10-10-10-10-10------------------------------------|
E|-------------------------------------------8-8-8-8-8-8-8-8-8-8-8-8-8-8-8-8----|

G|------------------------------------------------------------------------------|
D|------------------------------------------------------------------------------|
A|---8-8-8-8-8-8-8-8-10-10-10-10-10-10-10-10------------------------------------|
E|-------------------------------------------5-5-5-5-5-5-5-5-5-5-5-5-5-5-5-5----|

G|------------------------------------------------------------------------------|
D|------------------------------------------------------------------------------|
A|---8-8-8-8-8-8-8-8-10-10-10-10-10-10-10-10------------------------------------|
E|-------------------------------------------8-8-8-8-8-8-8-8-8-8-6-6-5-5-3-3----|

G|----------------------------------------------|
D|----------------------------------------------|
A|---8-8-8-8-8-8-8-8-10-10-10-10-10-10-10-10----|
E|----------------------------------------------|

G|--------------------------------------|
D|o------------------------------------o|
A|o------------------8-8-8-5--5--------o|
E|---5-5-5-5-5-5-5-5-------------8-8----|

G|----------------------------------------------------------------|------------|
D|o--------------------------------------------------------------o|------------|
A|o--------8--8-8-------8--8-8-----------------------------------o|------------|
E|---5--5---------5--5---------1-1-1-1-1-1-1-1-3-3-3-3-3-3-3-3----|---5~-------|

Suggest correction
Give kudos to tab author, rate the tab!
1 2 3 4 5
comments
print report bad tab
guest
You may want to rate the tab now too:
select rating
Wanna post a correction for this tab? Suggest correction