Oops, an error
Loading. Please wait.
We have an official We Want The Airwaves tab made by UG professional guitarists. Check out the tab »
×
by Ramones
160 views 3 this week
no commentswrite comment
1 2 3 4 5
2 more votes to show rating
add to favorites
×
Save as Personal and add changes to this tab that will be seen only by you. Learn more ›
×
You can save this tab as Personal to edit and correct it or add notes. All changes will be seen only by you. Learn more »
launch autoscroll
font size
0
reset
guitar tuner
edit
Autoscroll
slow
fast
+/-
esc
set tempo
stop
Author
Difficulty
Song: We Want The Airwaves
Artist: Ramones
Album: Pleasant Dreams
Genre: Punk Rock
Year: 1981

Hey guys! This is the bass tab of the song and it's 100% CORRECT. How can I know it? I took the riffs
from a Ramones live performance video where you can see and hear the notes by Dee Dee on the bass.
Anyway, enjoy the Ramones!

Follow this order to play the song:

[Riff 1]

G|---------------------------------------------------------------------------------------------------|
D|---------------------------------------------------------------------------------------------------|
A|---------------------------------------------------------------------------------------------------|
E|---5-5-5-5-5-5-5-5-5-5-5-5-5-5-5-5-1-1-1-1-1-1-1-1-1-1-1-1-1-1-1-1-3--3-3-3-3-3-3-1-1-1-3--3-3-3---|x1

G|-----------------------------------|
D|------------------------2--2-2-2---|
A|-----------------------------------|
E|---5--5-5-5-5-5-5-1-1-1------------|x1

G|---------------------------------------------------------------------------------------------------|
D|---------------------------------------------------------------------------------------------------|
A|---------------------------------------------------------------------------------------------------|
E|---5-5-5-5-5-5-5-5-5-5-5-5-5-5-5-5-1-1-1-1-1-1-1-1-1-1-1-1-1-1-1-1-3--3-3-3-3-3-3-1-1-1-3--3-3-3---|x1

G|---------------------------------------------------------------------|
D|---2-2-2-2-2-2-2-2-2-2-2-2-2-2-2-2-2-2-2-2-2-2-2-2-2-2-2-2-2-2-2-2---|
A|---------------------------------------------------------------------|
E|---------------------------------------------------------------------|x1

[Riff 2]

G|-------------------------------------|   |-------------------------------------|
D|-------------------------------------|   |-------------------------------------|
A|-------------------------------------|   |-------------------------------------|
E|---5-5-5-5-5-5-5-5-1-1-1-1-3-3-3-3---|x9 |---5-5-5-5-5-5-5-5-5-5-5-5-5-5-5-5---|x1

[Riff 1, 1st variation]

G|---------------------------------------------------------------------------------------------------|
D|---------------------------------------------------------------------------------------------------|
A|---------------------------------------------------------------------------------------------------|
E|---5-5-5-5-5-5-5-5-5-5-5-5-5-5-5-5-1-1-1-1-1-1-1-1-1-1-1-1-1-1-1-1-3--3-3-3-3-3-3-1-1-1-3--3-3-3---|x1

G|-----------------------------------|
D|------------------------2--2-2-2---|
A|-----------------------------------|
E|---5--5-5-5-5-5-5-1-1-1------------|x1

G|---------------------------------------------------------------------------------------------------|
D|---------------------------------------------------------------------------------------------------|
A|---------------------------------------------------------------------------------------------------|
E|---5-5-5-5-5-5-5-5-5-5-5-5-5-5-5-5-1-1-1-1-1-1-1-1-1-1-1-1-1-1-1-1-3--3-3-3-3-3-3-1-1-1-3--3-3-3---|x1

G|----------------------------------------------------------|
D|---2--2-2-2-2-2-2-2--2-2-2-2-2-2-2--2-2-2-2-2---------2---|
A|------------------------------------------------5-5-5-----|
E|----------------------------------------------------------|x1

Wait 3 seconds, then:

[Riff 3]

G|-------------------------------------|   |-------------------------------------|
D|-------------------------------------|   |-------------------------------------|
A|-------------------------------------|   |-------------------------------------|
E|---5-5-5-5-5-5-5-5-1-1-1-1-3-3-3-3---|x7 |---5-5-5-5-5-5-5-5-5-5-5-5-5-5-5-5---|x1

[Riff 1, 2nd variation]

G|---------------------------------------------------------------------------------------------------|
D|---------------------------------------------------------------------------------------------------|
A|---------------------------------------------------------------------------------------------------|
E|---5-5-5-5-5-5-5-5-5-5-5-5-5-5-5-5-1-1-1-1-1-1-1-1-1-1-1-1-1-1-1-1-3--3-3-3-3-3-3-1-1-1-3--3-3-3---|x1

G|-----------------------------------|
D|------------------------2--2-2-2---|
A|-----------------------------------|
E|---5--5-5-5-5-5-5-1-1-1------------|x1

G|---------------------------------------------------------------------------------------------------|
D|---------------------------------------------------------------------------------------------------|
A|---------------------------------------------------------------------------------------------------|
E|---5-5-5-5-5-5-5-5-5-5-5-5-5-5-5-5-1-1-1-1-1-1-1-1-1-1-1-1-1-1-1-1-3--3-3-3-3-3-3-1-1-1-3--3-3-3---|x1

G|-------------------------------------|
D|---2-2-2-2-2-2-2-2-2-2-2-2-2-2-2-2---|
A|-------------------------------------|
E|-------------------------------------|x1

[Riff 1, 2nd variation]

G|---------------------------------------------------------------------------------------------------|
D|---------------------------------------------------------------------------------------------------|
A|---------------------------------------------------------------------------------------------------|
E|---5-5-5-5-5-5-5-5-5-5-5-5-5-5-5-5-1-1-1-1-1-1-1-1-1-1-1-1-1-1-1-1-3--3-3-3-3-3-3-1-1-1-3--3-3-3---|x1

G|-----------------------------------|
D|------------------------2--2-2-2---|
A|-----------------------------------|
E|---5--5-5-5-5-5-5-1-1-1------------|x1

G|---------------------------------------------------------------------------------------------------|
D|---------------------------------------------------------------------------------------------------|
A|---------------------------------------------------------------------------------------------------|
E|---5-5-5-5-5-5-5-5-5-5-5-5-5-5-5-5-1-1-1-1-1-1-1-1-1-1-1-1-1-1-1-1-3--3-3-3-3-3-3-1-1-1-3--3-3-3---|x1

G|-------------------------------------|
D|---2-2-2-2-2-2-2-2-2-2-2-2-2-2-2-2---|
A|-------------------------------------|
E|-------------------------------------|x1

[Riff 4]

G|------------------------------------|   |-------|
D|------------------------------------|   |-------|
A|------------------------------------|   |-------|
E|---5-5-5-5-5-5-5-5-1-1-1-3--3-3-3---|x5 |---5---|x1 





Tab by: mdc_ivan 





            
            
Suggest correction
Creating personal tab
Creating personal tab
You can edit any tab online and save it as your Personal.

You can edit, replace or remove any tab part or add personal notes – all changes will be seen only by you.

Personal tabs can be accessed anytime from any device, even offline.
Learn more »
Give kudos to tab author, rate the tab!
1 2 3 4 5
comments
print report bad tab
guest
You may want to rate the tab now too:
select rating
Wanna post a correction for this tab? Suggest correction