Oops, an error
Loading. Please wait.

Zero Zero Ufo Bass Tab

version 1
version 1

Whole song

Interactive

16 views 1 this week
no commentswrite comment
1 2 3 4 5
3 more votes to show rating
add to favorites
launch autoscroll
font size
0
reset
guitar tuner
Autoscroll
slow
fast
+/-
esc
set tempo
stop
Help us to improve Ultimate-Guitar.com Take our survey!
×
Author
Difficulty
novice
------------------------------------------------------------------------------
                       Zero Zero UFO - The Ramones
------------------------------------------------------------------------------

Tabbed by: ChrisT

From the Album: The Chrysalis Years (2002)

Tuning: Standard

Intro (0:03)
G|-------------------------------------------|
D|o-----------------------------------------o|
A|o-----------------------------------------o|
E|---0--0-0-3-5-5--5--5-5-5-5--5-3-0--0-0----|

Verse                               Repeat x4
G|-------------------------------------------|
D|o-----------------------------------------o|
A|o-----------------------------------------o|
E|---0--0-0-0-5-5--5--5-5-5-5--5-3-0--0-0----|

Chorus
G|---------------------------------------------------------------|
D|o--------------------------------------------------------------|
A|o----------------------------------7-7-7-7-10/12--12--12-12----|
E|---8-8-8-8-8-8-8-8-8-8-8-8-8-8-8-8-----------------------------|

G|-------------------------------|--------------------------------------|
D|------------------------------o|--------------------------------------|
A|---7-7-7-7-10/12--12--12-12---o|--------------------------------------|
E|-------------------------------|---7-7-7-7-7-7-7-7-7-7-7-7-7-7-7-7----|

Verse                               Repeat x4
G|-------------------------------------------|
D|o-----------------------------------------o|
A|o-----------------------------------------o|
E|---0--0-0-0-5-5--5--5-5-5-5--5-3-0--0-0----|

Chorus
G|---------------------------------------------------------------|
D|o--------------------------------------------------------------|
A|o----------------------------------7-7-7-7-10/12--12--12-12----|
E|---8-8-8-8-8-8-8-8-8-8-8-8-8-8-8-8-----------------------------|

G|-------------------------------|--------------------------------------|
D|------------------------------o|--------------------------------------|
A|---7-7-7-7-10/12--12--12-12---o|--------------------------------------|
E|-------------------------------|---7-7-7-7-7-7-7-7-7-7-7-7-7-7-7-7----|

Guitar Solo                         Repeat x4
G|-------------------------------------------|
D|o-----------------------------------------o|
A|o-----------------------------------------o|
E|---0--0-0-3-5-5--5--5-5-5-5--5-3-0--0-0----|

Chorus
G|---------------------------------------------------------------|
D|o--------------------------------------------------------------|
A|o----------------------------------7-7-7-7-10/12--12--12-12----|
E|---8-8-8-8-8-8-8-8-8-8-8-8-8-8-8-8-----------------------------|

                        Repeat x4
G|-------------------------------|-------------------------------|--------|
D|------------------------------o|o-----------------------------o|--------|
A|---7-7-7-7-10/12--12--12-12---o|o--7-7-7-7-10/12--12--12-12---o|---7----|
E|-------------------------------|-------------------------------|--------|

Suggest correction
Give kudos to tab author, rate the tab!
1 2 3 4 5
comments
print report bad tab
guest
You may want to rate the tab now too:
select rating
Wanna post a correction for this tab? Suggest correction