Oops, an error
Loading. Please wait.

Zero Zero Ufo Tab

version 1
version 1

Whole song

Interactive

by Ramones
1,079 views 6 this week
no commentswrite comment
1 2 3 4 5
3 more votes to show rating
add to favorites
launch autoscroll
font size
0
reset
how to read this tab
guitar tuner
×
Best way to learn
"Zero Zero Ufo"
Autoscroll
slow
fast
+/-
esc
set tempo
stop
Difficulty
novice
any shit  DESTINYPUNK@HOTMAIL.COM

ZeRo ZeRo UFO

intro and verse

e|----------------------------------|
B|----------------------------------|
G|----------------------------------|
D|--2-2--7-7-7--7-7-7-7--5-5--2-2---|
A|--2-2--7-7-7--7-7-7-7--5-5--2-2---|
E|--0-0--5-5-5--5-5-5-5--3-3--0-0---|  repeat a few times

chorus

e|------------------------|
B|------------------------|
G|--5-5-5-5-5-5-5-5-5-5---|
D|--5-5-5-5-5-5-5-5-5-5---| first part
A|--3-3-3-3-3-3-3-3-3-3---|
E|------------------------|


e|--------------------------------|
B|--------------------------------|
G|--9-9-9--12/14-14-14-14-14-14---| second part
D|--9-9-9--x-x-x-x-x-x-x-x-x-x-x--| x2
A|--7-7-7--10/12-12-12-12-12-12---|
E|--------------------------------|

a little part like this.....

e|----------------|
B|----------------|
G|----------------|
D|--9-9-9-9-9-9---|
A|--9-9-9-9-9-9---|
E|--7-7-7-7-7-7---| x2


then repeat another verse another chorus and then......

solo

e|--0-0-0-0-0-0-0-0--7-7-7-7-7-7-7-7--x2--12-12-12-12-12-12--7-7-7-7-7-7-7-7---|
B|-----------------------------------------------------------------------------|
G|-----------------------------------------------------------------------------|
D|-----------------------------------------------------------------------------|
A|-----------------------------------------------------------------------------|
E|-----------------------------------------------------------------------------|

e|---12-12-12-12-12-12--7-7-7-7--12-12-12-12-12---|
B|------------------------------------------------|
G|------------------------------------------------|
D|------------------------------------------------|
A|------------------------------------------------|
E|------------------------------------------------|

then repeat the chorus x2 and then the second part of the chorus x2 and finish like this.....

end

e|--------|
B|--------|
G|--9-----|
D|--9-----|
A|--7-----|
E|--------|
Suggest correction
Give kudos to tab author, rate the tab!
1 2 3 4 5
comments
print report bad tab
guest
You may want to rate the tab now too:
select rating
Wanna post a correction for this tab? Suggest correction