Oops, an error
Loading. Please wait.

Alone Tab

version 1
version 1

Whole song

by Ramp
2,031 views 6 this week
no commentswrite comment
1 2 3 4 5
excellent!
x 1
add to favorites
launch autoscroll
font size
0
reset
how to read this tab
guitar tuner
Tab Pro tools
  • play this tab
  • loop segment
  • change instrument
  • show fretboard
  • metronome
Autoscroll
slow
fast
+/-
esc
set tempo
stop
Contributor
Difficulty
novice
-------------------------------------------------------------------------------
                             RAMP - Alone
-------------------------------------------------------------------------------
Tabbed by: luis
Username : musicresponse
Comments : my honest hopes loads have a listen and improve the tab - though i did my 
i think this can be seriously improved...

| /  slide up
| \  slide down
| h  hammer-on
| p  pull-off
| ~  vibrato


// Intro

Guitar 1
d|-----------------------------------------|-----------------------------------------|
a|-----------------------------------------|-----------------------------------------|
F|-----------------------------------------|-----------------------------------------|
C|-----------------------------------------|-----------------------------------------|
G|-----------------------------------------|-----------------------------------------|
D|-1h3-333333----------1h3-333333----------|-1h3-333333----------1h3-333333----------|
A|------------00000000------------00000000-|------------00000000------------00000000-|

Guitar 2
d|-----------------------------------------|-----------------------------------------|
a|-----------------------------------------|-----------------------------------------|
F|-----------------------------------------|-----------------------------------------|
C|-----------------------------------------|-----------------------------------------|
G|-----------------------------------------|-6-------------------6-------------------|
D|-----------------------------------------|-6h8-888888----------6h8-8888888---------|
A|-----------------------------------------|-----------------------------------------|


// Main

  I...                              feel the time...           slowly drifting...
d|-----------------------------------------|------------------------------------|
a|-----------------------------------------|------------------------------------|
F|-----------------------------------------|------------------------------------|
C|-----------------------------------------|------------------------------------|
G|-----------------------------------------|------------------------------------|
D|-1h3-333333----------1h3-333333----------|-11111111∼--------------------|
A|-----------------------------------------|-------------------44444444∼--|

  in my veins...                         memories...          remains...
d|-----------------------------------------|------------------------------------|
a|-----------------------------------------|------------------------------------|
F|-----------------------------------------|------------------------------------|
C|-----------------------------------------|------------------------------------|
G|-----------------------------------------|------------------------------------|
D|-1h3-333333----------1h3-333333----------|-11111111∼--------------------|
A|-----------------------------------------|-------------------44444444∼--|

  Confined...                           i'm alive...           somewhere by the...
d|-----------------------------------------|------------------------------------|
a|-----------------------------------------|------------------------------------|
F|-----------------------------------------|------------------------------------|
C|-----------------------------------------|------------------------------------|
G|-----------------------------------------|------------------------------------|
D|-1/3-333333-63363363-1/3-333333-63363363-|-11111111∼--------------------|
A|-----------------------------------------|-------------------44444444∼--|

  Autumn leaves...                       falling in...         between...
d|-----------------------------------------|------------------------------------|
a|-----------------------------------------|------------------------------------|
F|-----------------------------------------|------------------------------------|
C|-----------------------------------------|------------------------------------|
G|-----------------------------------------|------------------------------------|
D|-1h3-333333----------1h3-333333----------|-11111111∼--------------------|
A|-----------------------------------------|-------------------44444444∼--|


// Bridge

  'Cause no one's...     my head up high...  no one's...     to piece my mind...
d|-----------------------------------------|-----------------------------------------|
a|-----------------------------------------|-----------------------------------------|
F|-----------------------------------------|-----------------------------------------|
C|-----------------------------------------|-----------------------------------------|
G|-------10------------------8--------/10--|--/10---------------6---------/8---------|
D|-------10------------------8--------/10--|--/10---------------6---------/8---------|
A|-------8-------------------6--------/8---|--/8----------------4---------/6---------|

// Chorus

  Alone...             lies my soul...       i'm so cold...             i'm afraid...
Guitar 1
d|-----------------------------------------|-----------------------------------------|
a|-----------------------------------------|-----------------------------------------|
F|-----5-------------------------5---------|--------5--------------------------------|
C|-----5-------------------------5---------|--------5--------------------------------|
D|-1/3-3---------------------1/3-3---------|----1/3-3-----------------------3/2------|
A|-----------------------------------------|-----------------------------------------|

Guitar 2
d|-----------------------------------------|-------------------------------------------|
a|-----------------------------------------|-------------------------------------------|
F|-----------------------------------------|-------------------------------------------|
C|----10∼----------------------------------|----------------------------------9--|
D|----10∼----------------------------------|------7-9-------------------------9--|
A|----8∼-----------------------------------|----------------------------------7--|


// Back to main... then bridge... then chorus...

Solo
d|---------/\------------/\-------------------------------------|
a|-14p12h14--\---14p12h14--\---14-14/16---14-14/16---14h12h16---|
F|--------------------------------------------------------------|
C|--------------------------------------------------------------|
G|--------------------------------------------------------------|
D|--------------------------------------------------------------|
A|--------------------------------------------------------------|
comments
We did not receive enough feedback on this tab! Please rate:
print report bad tab
1 2 3 4 5
I want to post or [tab]
guest
You may want to rate the tab now too:
select rating
Please do not post tabs as comments. Select "correction" instead!