Oops, an error
Loading. Please wait.

Another Night Bass Tab

1,209 views 1 this week
no commentswrite comment
1 2 3 4 5
3 more votes to show rating
add to favorites
launch autoscroll
font size
0
reset
guitar tuner
Autoscroll
slow
fast
+/-
esc
set tempo
stop
Help us to improve Ultimate-Guitar.com Take our survey!
×
Rancid
"Another Night"
Rancid (1993)
by: Alec Salseda (misfit809@Hotmail.com)

Intro:

G:-------------------------------|
D:-------------------------------|
A:-5---3---4-5-4-5----3---4-5-4-5|
E:---1---3----------1---3--------|

Verse:

G:----------------------------------|
D:----------------------------------|
A:-5-5-5-3---------3-3-3-3-0--------|
E:---------1-1-1-1-----------3-3-3-3|

Chorus:

G:--------------------------------------|
D:--------------------------------------|
A:-3-3-3-3-3-0-0-0-0---------3-3-2-3-2-3|
E:-------------------1-1-3-3------------|

Solo:

G:-7-7-7-5----------------7-7-5-5------------|
D:--------7-7-6-6-5-5-------------7-7-6-6-5-5|
A:--------------------5-5--------------------|
E:-------------------------------------------|

G:-----------------5-5-4-5-4-6-6-5-----------|
D:-4-4-5-5-6-----------------------7-5-------|
A:-----------7-8-5---------------------8-5---|
E:-------------------------------------------|

G:---------------------------------------------|
D:------------9-10-8-----------------9-10-8----|
A:------7-9-10------10-8------ 7-9-10------10-8|
E:8-9-10-----------------8-9-10----------------|

G:-----------------3-5-3-------3-5------------|
D:---------3-3-4-5-------5-3-5-----5-3--------|
A:---3-4-5-----------------------------5-4-3--|
E:-3-----------------------------------------3|
Suggest correction
Give kudos to tab author, rate the tab!
1 2 3 4 5
comments
print report bad tab
guest
You may want to rate the tab now too:
select rating
Wanna post a correction for this tab? Suggest correction