Oops, an error
Loading. Please wait.

As Wicked Bass Tab

version 3
version 3

Whole song

Interactive

406 views 3 this week
no commentswrite comment
1 2 3 4 5
3 more votes to show rating
add to favorites
launch autoscroll
font size
0
reset
guitar tuner
Autoscroll
slow
fast
+/-
esc
set tempo
stop
Help us to improve Ultimate-Guitar.com Take our survey!
×
Author
- Rancid - As Wicked
- Tabbed by: Pacu, bassist from a brazilian punk rock banda called PunkAss.

__________
Intro
G|---------------|----|
D|---------------|----|
A|-0-3-4-5\------|-1x-|
E|---------------|----|

G|------------------------|----|
D|------------------------|----|
A|-0-3-4-5\--5\--5\-------|-1x-|
E|------------------5\-3\-|----|

G|---------------------------------------|----|
D|---------------------------------------|----|
A|-0-3-4-55----3-55----3-55----3-------3-|-1x-|
E|----------335-----335-----335--55-335--|----|

G|---------------------------------------|----|
D|---------------------------------------|----|
A|-0-3-4-55----3-55----3-55----3-------3-|-1x-|
E|----------335-----335-----335--55-335--|----|

Verse
G|------------------------|----|
D|--------------0567~54---|----|
A|-5~-----0345~--------74-|-1x-|
E|----3~------------------|----|

G|-------------------------|----|
D|---------------0567~54---|----|
A|-5~320---0345~--------74-|-1x-|
E|------3~-----------------|----|

G|----------------------------------|----|
D|----------------------0567775554--|----|
A|-55555320-----03455555----------7-|-1x-|
E|---------33333--------------------|----|

G|----------------------------------|----|
D|----------------------05677777777-|----|
A|-55555320-----03455555------------|-1x-|
E|---------33333--------------------|----|

Pre-chorus
G|---79-9/11-9-7-/14-12-11-11h12p11-9-|----|
D|-/7---------------------------------|----|
A|------------------------------------|-1x-|
E|------------------------------------|----|

Chorus
G|---------------------------------|----|
D|---------------------------------|----|
A|-55----3-55----3-55----3-------3-|-2x-|
E|----335-----335-----335--55-335--|----|

Verse
Pre-chorus
Chorus

Bridge
G|-------------------------------------------|----|
D|-------------------------------------------|----|
A|-55555555-5555-----------------------------|-1x-|
E|---------------5-3--5555-3h5-55-3h5-55-5-3-|----|

G|------------------------------------------------|----|
D|------------------------------------------------|----|
A|-5555-3h5-55-3h5-55-----------------------------|-1x-|
E|--------------------5-3--5555-3h5-55-3h5-55-5-3-|----|

Guitar Solo
G|---------------------------------|----|
D|---------------------------------|----|
A|-55----3-55----3-55----3-------3-|-2x-|
E|----335-----335-----335--55-335--|----|

Verse
G|----------------------------------|----|
D|----------------------0567775554--|----|
A|-55555320-----03455555----------7-|-1x-|
E|---------33333--------------------|----|

G|----------------------------------|----|
D|----------------------05677777777-|----|
A|-55555320-----03455555------------|-1x-|
E|---------33333--------------------|----|

Pre-chorus
Chorus

Ending
G|----|----|
D|----|----|
A|-5\-|-1x-|
E|----|----|


Suggest correction
Give kudos to tab author, rate the tab!
1 2 3 4 5
comments
print report bad tab
guest
You may want to rate the tab now too:
select rating
Wanna post a correction for this tab? Suggest correction