Oops, an error
Loading. Please wait.

Avenues Amp Alleyways Bass Tab

371 views 1 this week
no commentswrite comment
1 2 3 4 5
please rate
add to favorites
launch autoscroll
font size
0
reset
guitar tuner
Autoscroll
slow
fast
+/-
esc
set tempo
stop
Help us to improve Ultimate-Guitar.com Take our survey!
×
Rancid
AVENUES & ALLEYWAYSIntro:
G:---------------------------------------------------------
D:---------------------------------------------------------
A:-----------3---------5--3--------------------------------
E:-3----3---------3----------3--3-3-3-3-3-3-3-3-3-OI OI OI!
Verse: (Repeat 2x)
G:----------------------------------------------------
D:----------------------------------------------2-3-5-
A:-------------------3-3-3-3-3-3-3-3----2-3-5-3-------
E:-3-3-3-3-3-3-3-3-3------------------3---------------
2nd half of verse: (Repeat 2x)
G:----------------------
D:---------------2--3--5
A:---2--3--5--3---------
E:3---------------------
Chorus: (Repeat once)
G:-------------------------------------------------------------
D:-------------------------------------------------------------
A:5-5-5-5-5-5-5-5-3-3-3-3-5-3-2---------------------2---3---4--
E:------------------------------5-3-3-3-3-3-3-3-3-3---3---3---3
Part before final chorus and ending: (IT'S TOO HARD!!)
G:----------
D:----------
E:5----3----
A:---------3

Figured out and written by Fidget (bassist of Half Moon)
Suggest correction
Give kudos to tab author, rate the tab!
1 2 3 4 5
comments
print report bad tab
guest
You may want to rate the tab now too:
select rating
Wanna post a correction for this tab? Suggest correction