Oops, an error
Loading. Please wait.

Black Derby Jacket Bass Tab

2,976 views 33 this week
1 commentread comment
1 2 3 4 5
excellent!
x 3
add to favorites
launch autoscroll
font size
0
reset
guitar tuner
Tab Pro tools
  • play this tab
  • loop segment
  • change instrument
  • show fretboard
  • metronome
Autoscroll
slow
fast
+/-
esc
set tempo
stop
Contributor
Difficulty
novice
- Rancid - Black Derby Jacket
- Tabbed by: Pacu, bassist from a brazilian punk rock ban called PunkAss.
- Pretty easy song to play, fuckin cool though. 

__________________

Intro – No bass

Verse [2x]
G|------------------------------------------------------------------|
D|------------------------------------------------------------------|
A|-----------------00000000000000543333333333333353-----------------|
E|-3333333333333333--------------------------------3333333333333333-|

Chorus
G|----------------------------|------|---------------------------|------|
D|-5555-777777-10101010-------|-[3x]-|-99999999-1010101010101010-|-[1x]-|
A|----------------------------|------|---------------------------|------|
E|---------------------333333-|------|---------------------------|------|

Bridge [2x]
G|-----7775----------------|
D|-5-5-----8-5-5-555-0-3-4-|
A|-------------------------|
E|-------------------------|

Verse [2x]
Chorus
Bridge [2x]
Verse [2x]

Chorus 
G|-7-7-77-9999-12-12-1212-7777-|------|---------------------------|------|
D|-5-5-55-7777-10-10-1010-5555-|-[3x]-|-99999999-1010101010101010-|-[1x]-|
A|-----------------------------|------|---------------------------|------|
E|-----------------------------|------|---------------------------|------|

Bridge [2x]

Ending
G|-----------|-------|
D|-----------|-[12x]-|
A|-------53--|-------|
E|-33333---5-|-------|

comments
We did not receive enough feedback on this tab! Please rate:
print report bad tab
1 2 3 4 5
1 comment total.
+1 reply
Mr. Thingy wrote on August 7 2008, 02:54 am

Pretty nice, the only thing is when he's playing chords, the correct chords are:

G|-4-5--9-4-|
D|-5-7-10-5-|

Other than that, good job.

I want to post or [tab]
guest
You may want to rate the tab now too:
select rating
Please do not post tabs as comments. Select "correction" instead!