Oops, an error
Loading. Please wait.

Bloodclot Bass Tab

version 2
version 2

Whole song

Interactive

583 views 1 this week
no commentswrite comment
1 2 3 4 5
please rate
add to favorites
launch autoscroll
font size
0
reset
guitar tuner
Autoscroll
slow
fast
+/-
esc
set tempo
stop
Help us to improve Ultimate-Guitar.com Take our survey!
×
Song: Bloodclot
Band: Rancid
Album: Life Won't Wait
Tabbed by: Ryan Christo

G:-------------------------------------------------
D:-------------------------------------------------
A:-8-8-8-8-8--6-6-6-------6/8-8-8-8-8--6-6-6-------
E:------------------6-6-6--------------------6-6-6-
 
G:---------------------------------------------------
D:---------------------------------------------------
A:-6/8-8-8-8-8--6-6-6-------6/8-8-8-8-8--6-6-6-------
E:--------------------6-6-6--------------------6-6-6-

G:-------------------------------------------------------------
D:-------------------------------------------------------------
A:-6/8--8-6--6----------1h3-8--8-6--6----------1h3-8--8-6--6---
E:-------------6--6-1h3---------------6--6-1h3---------------6-

G:------------------------------------------------------------------
D:------------------------------------------------------------------
A:-------1h3-8--8-6--6----------1h3-8-8-888-6-6-666----------------
E:-6-1h3---------------6--6-1h3---------------------6-6-666-1-1-1-6-

G:-----------------------------------------------------------------
D:-----------------------------------------------------------------
A:-8-8-888-6-6-666-----------------8-8-888-6-6-666-----------------
E:-----------------6-6-666-1-1-1-6-----------------6-6-666-1-1-1-6-

G:----------------------------------------------7-555-----------
D:----------------------------------------------------777-5-3---
A:-8-8-888-6-6-666------------------5--5--5-5-5---------------5-
E:-----------------6-6-666-1-1-1-6------------------------------

G:-------------5-333-----------------------7-555--------------------
D:-------------------555-3-2---------------------777-5-3------------
A:-3--3--3-3-3---------------3-5--5--5-5-5---------------5----------
E:---------------------------------------------------------6-6-6666-

G:----------
D:----------
A:----------
E:-8-8-8888-

G:-------------------------------------------------
D:-------------------------------------------------
A:-8-8-8-8-8--6-6-6-------6/8-8-8-8-8--6-6-6-------
E:------------------6-6-6--------------------6-6-6-

G:-------------------------------------------------------------
D:-------------------------------------------------------------
A:-6/8--8-6--6----------1h3-8--8-6--6----------1h3-8--8-6--6---
E:-------------6--6-1h3---------------6--6-1h3---------------6-

G:------------------------------------------------------------------
D:------------------------------------------------------------------
A:-------1h3-8--8-6--6----------1h3-8-8-888-6-6-666----------------
E:-6-1h3---------------6--6-1h3---------------------6-6-666-1-1-1-6-

G:-----------------------------------------------------------------
D:-----------------------------------------------------------------
A:-8-8-888-6-6-666-----------------8-8-888-6-6-666-----------------
E:-----------------6-6-666-1-1-1-6-----------------6-6-666-1-1-1-6-

G:----------------------------------------------7-555-----------
D:----------------------------------------------------777-5-3---
A:-8-8-888-6-6-666------------------5--5--5-5-5---------------5-
E:-----------------6-6-666-1-1-1-6- -----------------------------

G:-------------5-333-----------------------7-555--------------------
D:-------------------555-3-2---------------------777-5-3------------
A:-3--3--3-3-3---------------3-5--5--5-5-5---------------5----------
E:---------------------------------------------------------6-6-6666-

G:----------
D:----------
A:----------
E:-8-8-8888-

G:-------------------------------------------------
D:-------------------------------------------------
A:-8-8-8-8-8--6-6-6-------6/8-8-8-8-8--6-6-6-------
E:------------------6-6-6--------------------6-6-6-

G:------------------------------------------------------------------
D:------------------------------------------------------------------
A:-6/8-8-8-8\6-6-6-6/8-8-8-8\6-6-6-6/8-8-8-8\6-6-6-6/8-8-8-8\6-6-6-6
E:------------------------------------------------------------------

G:-------------7-555-----------------------5-333----------
D:-------------------777-5-3---------------------555-3-2--
A:-5--5--5-5-5---------------5-3--3--3-3-3---------------3
E:--------------------------------------------------------

G:-------------7-555--------------------------------
D:-------------------777-5-3------------------------
A:-5--5--5-5-5---------------5-------------------8/-
E:-----------------------------6-6-6666-8-8-8888----

G:------8-9-10------8------------------------------
D:---------------10---10-9-8-6---------------------
A:-(11)------------------------8-6--6-5------------
E:--------------------------------------8-6-5-5-6/-

G:-10-----8--------------------------------------
D:-----10---10-9-8-6-------------6---------------
A:-------------------8-6-8h11p8----8-7-6---6-7-8-
E:---------------------------------------8-------

G:-10--13-13-10-8-8-----------------
D:------------------10-8-6----------
A:-------------------------8----6-5-
E:----------------------------------

G:-------------------------------------------------
D:-------------------------------------------------
A:-8-8-8-8-8--6-6-6-------6/8-8-8-8-8--6-6-6-------
E:------------------6-6-6--------------------6-6-6-
 
G:---------------------------------------------------
D:---------------------------------------------------
A:-6/8-8-8-8-8--6-6-6-------6/8-8-8-8-8--6-6-6-------
E:--------------------6-6-6--------------------6-6-6-

G:---------------------------------------------------
D:---------------------------------------------------
A:-6/8-8-8-8-8--6-6-6-------6/8-8-8-8-8--6-6-6-------
E:--------------------6-6-6--------------------6-6-6-

G:--------------------------------------------------------
D:--------------------------------------------------------
A:-6/8-8-8-8-8--6-6-6-------6/8-8-8-8-8--6-6-6-------6/8\-
E:--------------------6-6-6--------------------6-6-6------


Suggest correction
What's this?
You can suggest a correction to this tab. Community and Mods will review your correction and vote to approve or reject it.
comments
We did not receive enough feedback on this tab! Please rate:
print report bad tab
1 2 3 4 5
guest
You may want to rate the tab now too:
select rating
Please do not post tabs as comments. Select "correction" instead!