Oops, an error
Loading. Please wait.

Bloodclot Bass Tab

version 3
version 3

Whole song

Interactive

652 views 1 this week
no commentswrite comment
1 2 3 4 5
worth learning
x 1
add to favorites
launch autoscroll
font size
0
reset
guitar tuner
Tab Pro tools
  • play this tab
  • loop segment
  • change instrument
  • show fretboard
  • metronome
Autoscroll
slow
fast
+/-
esc
set tempo
stop
Contributor
Difficulty
intermediate
Bassist: Matt Freeman

INTRO
G|-----------------|-----------------|
D|-3-3-3-3-3.------|---1-1-1-------1-|
A|-----------------|---------1-1-1---| x4
E|-----------------|-----------------|
HEY!......        HO!......

VERSE
G|-----------------|-----------------|
D|-3.------31.-----|-1---------------|
A|-----------------|--1------1----1^3| x4
E|-----------------|----------1^3----|
Well Im A Crazy Upsetter......
G|-----------------|-----------------|
D|-3-3-3-3-1-1-1-1-|-----------------|
A|-----------------|-1-1-1-1-------1-| x4
E|-----------------|---------1-1-1---|
Swing Ur Fists......

CHORUS
G|---------------7-|---5-------------|---------------5-|---3-------------|
D|-----------------|-------7---5-3---|-----------------|-------5---3-1---|
A|-5---5---5-5-5---|---------------5-|-3---3---3-3-3---|---------------3-|
E|-----------------|-----------------|-----------------|-----------------|
Now My Guns R Blazin'......         Bloodclot, I Can C 360......
G|---------------7-|--5--------------|-----------------|-----------------|
D|-----------------|-------7---5-3---|-----------------|-----------------|
A|-5---5---5-5-5---|---------------5-|-1-1-1-1-1-1-1-1-|-3-3-3-3-3-3-3-3-|
E|-----------------|-----------------|-----------------|-----------------|
N' Now My Guns R Blazin'...... Pick It Back Up And Start It All Over Agen!

BRIDGE
G|-----------------|-----------------|
D|-3-3-3-3-3.------|---1-1-1-------1-|
A|-----------------|---------1-1-1---| x2
E|-----------------|-----------------|
HEY!......        HO!......

VERSE
G|-----------------|-----------------|
D|-3.------31.-----|-1---------------|
A|-----------------|--1.-----1----1^3| x4
E|-----------------|----------1^3----|
Well Im A Bad Mother ***er......
G|-----------------|-----------------|
D|-3-3-3-3-1-1-1-1-|-----------------|
A|-----------------|-1-1-1-1-------1-| x4
E|-----------------|---------1-1-1---|
Read Ur Words......

CHORUS
G|---------------7-|---5-------------|---------------5-|---3-------------|
D|-----------------|-------7---5-3---|-----------------|-------5---3-1---|
A|-5---5---5-5-5---|---------------5-|-3---3---3-3-3---|---------------3-|
E|-----------------|-----------------|-----------------|-----------------|
Now My Guns R Blazin'......         Bloodclot, I Can C 360......
G|---------------7-|--5--------------|-----------------|-----------------|
D|-----------------|-------7---5-3---|-----------------|-----------------|
A|-5---5---5-5-5---|---------------5-|-1-1-1-1-1-1-1-1-|-3-3-3-3-3-3-3-3-|
E|-----------------|-----------------|-----------------|-----------------|
N' Now My Guns R Blazin'...... Pick It Back Up And Start It All Over Agen!

BRIDGE
G|-----------------|-----------------|
D|-3-3-3-3-3.------|---1-1-1-------1-|
A|-----------------|---------1-1-1---| x2
E|-----------------|-----------------|
HEY!......        HO!......
HEY!......        GO!!!!!!!

MENTAL HEAVY SORT OF BIT
G|-----------------|
D|-3-3-3-/-1-1-1-/-|
A|-----------------| x4
E|-----------------|

CHORUS
G|---------------7-|---5-------------|---------------5-|---3-------------|
D|-----------------|-------7---5-3---|-----------------|-------5---3-1---|
A|-5---5---5-5-5---|---------------5-|-3---3---3-3-3---|---------------3-|
E|-----------------|-----------------|-----------------|-----------------|
Now My Guns R Blazin'......         Bloodclot, I Can C 360......
G|---------------7-|--5--------------|-----------------|-----------------|
D|-----------------|-------7---5-3---|-----------------|-----------------|
A|-5---5---5-5-5---|---------------5-|-1-1-1-1-1-1-1-1-|-3-3-3-3-3-3-3-3-|
E|-----------------|-----------------|-----------------|-----------------|
N' Now My Guns R Blazin'...... Pick It Back Up And Start It All Over Agen!

G|-----------------|
D|-3*--------------|
A|-----------------|
E|-----------------|

(PAUSE)

BASS SOLO 
G|---7-9-10--------|------8------------|-----------------|------------------|
D|-6---------------|-10-----10-9-8-6---|-----------------|---------------10-|
A|-----------------|-----------------8-|-6-8---------6---|-5----------------|
E|-----------------|-------------------|-----------------|---8-6-5-5-6------|

G|--------------8----|-----------------|-----------------|-----------10-----|
D|---------10-----10-|-9-8-6-------6---|---------6-------|------------------|
A|-------------------|-------8-6-8---8-|-------------8-7-|-6---6-7-8--------|
E|-------------------|-----------------|-----------------|---8--------------|

G|-----13.--13-10-8-8-|------------------|-----------------| 
D|--------------------|-10-8-------------|-----------------| 
A|--------------------|------8-----------|-6-------5-------| 
E|--------------------|------------------|-----------------| 

FINAL CHORUS/ENDING
G|-----------------|-----------------|
D|-3-3-3-3-3.------|---1-1-1-------1-|
A|-----------------|---------1-1-1---| x8
E|-----------------|-----------------|
HEY!......        HO!......
comments
We did not receive enough feedback on this tab! Please rate:
print report bad tab
1 2 3 4 5
I want to post or [tab]
guest
You may want to rate the tab now too:
select rating
Please do not post tabs as comments. Select "correction" instead!