Oops, an error
Loading. Please wait.

Bob Bass Tab

version 1
version 1

Whole song

Interactive

1,132 views 1 this week
no commentswrite comment
1 2 3 4 5
please rate
add to favorites
launch autoscroll
font size
0
reset
guitar tuner
Tab Pro tools
  • play this tab
  • loop segment
  • change instrument
  • show fretboard
  • metronome
×
Best way to learn
"Bob"
Autoscroll
slow
fast
+/-
esc
set tempo
stop
Contributor
Difficulty
advanced
This A Really Cover, I Really think This tab is correct so here it is

Intro
----------------------------------------------------------------|
----------------------------------------------------------------|
-333333333333333-----------------3333333333333333------------01-|
----------------11111111111111111----------------1111111111-1---|

Verse
--------------------------------------------|
------------1-1-1/2-3-333333-333-33-11-00---|
-3-333333-33-3-3-------------------------11-|
--------------------------------------------|

Chorus
----------------------------------/------------------------------------|
-----320--------------------------/---320------------------------------|
-3-3----3----2320-----------------/3-3---3-----2320---------------0-12-|
----------3-3-----5-55555-1-11111-/--------3-3------5-55555-1111-1-----|

During Solo
------------------------------------|
------------------------------------|
-3-333333-----------------------012-|
---------3-333333-5-555555-1-111----|

After Solo
-----------------------------------------|
-----------------------------------------|
-(3)--------------(3)---------------8~~~-|
---------(1)----------------(0)----------|

Bridge
----------------------------------------|
---------------------------------887755-|
-33333333---5566778-8888888-10-10-------|
----------66----------------------------|

Outro
---------------------------------|
---------------------------------|
-3-33-33-1-11-11----------001122-|
-----------------1-1111-33-------|

End on
------|
------|
-3~~~~
------

Order
Intro
Verse
Chorus
During Solo
After Solo
Bridge
Outro
End on
comments
We did not receive enough feedback on this tab! Please rate:
print report bad tab
1 2 3 4 5
I want to post or [tab]
guest
You may want to rate the tab now too:
select rating
Please do not post tabs as comments. Select "correction" instead!