Oops, an error
Loading. Please wait.

Bob Bass Tab

version 2
version 2

Whole song

Interactive

367 views 1 this week
no commentswrite comment
1 2 3 4 5
please rate
add to favorites
launch autoscroll
font size
0
reset
guitar tuner
Autoscroll
slow
fast
+/-
esc
set tempo
stop
Help us to improve Ultimate-Guitar.com Take our survey!
×
#----------------------------------PLEASE NOTE---------------------------------#
#This file is the author's own work and represents their interpretation of the #
#song. You may only use this file for private study, scholarship, or research. #
#------------------------------------------------------------------------------#

BOB (Bassline)
As recorded by Rancid
(From the 2002 Album BYO SPLIT SERIES, VOL. 3)

Transcribed by Unregistered
	

Words and Music by Mike Burkett

Gtr I (E A D G) - 'Matt Freeman'

 Intro                Verse 1
  Q=180
 2/4    4/4
  Gtr I
  W      Wx8           W          +W           W
|------|------------||----------|------------|----------|
|------|------------||----------|------------|----------|
|------|------------||-3--------|-(3)--------|----------|
|------|------------||----------|------------|-1--------|


  +W           W          +W           W          +W
|------------|----------|------------|----------|--------|
|------------|----------|------------|----------|--------|
|------------|-3--------|-(3)--------|----------|--------|
|-(1)--------|----------|------------|-1--------|-(1)----|


  E E E E E E E E   E E E E E E E E   E E E E E E E E   E E E E E E E E
|-----------------|-----------------|-----------------|------------------|
|-----------------|-----1---1---1-2-|-3-3-3-3-3-3-3-3-|-3-3-1-1-0-0------|
|-3-3-3-3-3-3-3-3-|-3-3---3---3-----|-----------------|-------------1-0--|
|-----------------|-----------------|-----------------|------------------|


  E E E E E E E E   E E E E E E E E   E E E E E E E E   E E E E E E E E
|-----------------|-----------------|-----------------|------------------||
|-----------------|-----1---1---1-2-|-3-3-3-3-3-3-3-3-|-3-3-1-1-0-0------||
|-3-3-3-3-3-3-3-3-|-3-3---3---3-----|-----------------|-------------1-0--||
|-----------------|-----------------|-----------------|------------------||


 Chorus
  Q  Q  E E E E   Q  Q  E E E E   Q  Q  Q  Q    Q  Q  Q  Q
|---------------|---------------|-------------|------------|
|---------------|---------------|-------------|------------|
|-3--3--7-5-3-0-|-------2-3-2-0-|-0--0--0--0--|------------|
|---------------|-3--3----------|-------------|-1--1--1--1-|


  Q  Q  E E E E   Q  Q  E E E E   Q  Q  Q  Q    Q  Q  Q  Q
|---------------|---------------|-------------|--------------||
|---------------|---------------|-------------|--------------||
|-3--3--7-5-3-0-|-------2-3-2-0-|-0--0--0--0--|--------------||
|---------------|-3--3----------|-------------|-1--1--1--1---||


 Guitar Solo
  E E E E E E E E   E E E E E E E E   E E E E E E E E   E E E E E E E E
|-----------------|-----------------|-----------------|------------------|
|-----------------|-----------------|-----------------|------------------|
|-3-3-3-3-3-3-3-3-|-----------------|-0-0-0-0-0-0-0-0-|------------------|
|-----------------|-3-3-3-3-3-3-3-3-|-----------------|-1-1-1-1-1-1-1-1--|


  E E E E E E E E   E E E E E E E E   E E E E E E E E   E E E E E E E E
|-----------------|-----------------|-----------------|------------------|
|-----------------|-----------------|-----------------|------------------|
|-3-3-3-3-3-3-3-3-|-----------------|-0-0-0-0-0-0-0-0-|------------------|
|-----------------|-3-3-3-3-3-3-3-3-|-----------------|-1-1-1-1-1-1-1-1--|


  E E E E E E E E   E E E E E E E E   E E E E E E E E   E E E E E E E E
|-----------------|-----------------|-----------------|------------------|
|-----------------|-----------------|-----------------|------------------|
|-3-3-3-3-3-3-3-3-|-----------------|-0-0-0-0-0-0-0-0-|------------------|
|-----------------|-3-3-3-3-3-3-3-3-|-----------------|-1-1-1-1-1-1-1-1--|


  E E E E E E E E   E E E E E E E E   E E E E E E E E   E E E E E E E E
|-----------------|-----------------|-----------------|------------------||
|-----------------|-----------------|-----------------|------------------||
|-3-3-3-3-3-3-3-3-|-----------------|-0-0-0-0-0-0-0-0-|------------------||
|-----------------|-3-3-3-3-3-3-3-3-|-----------------|-1-1-1-1-1-1-1-1--||


 Verse 2
  W          +W           W          +W           W
|----------|------------|----------|------------|----------|
|----------|------------|----------|------------|----------|
|-3--------|-(3)--------|----------|------------|-3--------|
|----------|------------|-1--------|-(1)--------|----------|


  +W           W          +W           W          +W
|------------|----------|------------|----------|--------|
|------------|----------|------------|----------|--------|
|-(3)--------|----------|------------|----------|--------|
|------------|-0--------|-(0)--------|-1--------|-(1)----|


  Q  E E E E E E   E E E E E E E E   Q  E E E E E E    E  E E E E E E E
|----------------|-----------------|----------------|--------------------|
|----------------|-----------------|----------------|-------8-8-7-7-5-5--|
|-3--3-3-3-3-3-3-|-----5-5-6-6-7-7-|-8--8-8-8-8-8-8-|-10-10--------------|
|----------------|-6-6-------------|----------------|--------------------|


  Q  E E E E E E   E E E E E E E E   Q  E E E E E E    E  E E E E E E E
|----------------|-----------------|----------------|--------------------|
|----------------|-----------------|----------------|-------8-8-7-7-5-5--|
|-3--3-3-3-3-3-3-|-----5-5-6-6-7-7-|-8--8-8-8-8-8-8-|-10-10--------------|
|----------------|-6-6-------------|----------------|--------------------|


  Q  E E E E E E   E E E E E E E E   Q  E E E E E E    E  E E E E E E E
|----------------|-----------------|----------------|--------------------|
|----------------|-----------------|----------------|-------8-8-7-7-5-5--|
|-3--3-3-3-3-3-3-|-----5-5-6-6-7-7-|-8--8-8-8-8-8-8-|-10-10--------------|
|----------------|-6-6-------------|----------------|--------------------|


  Q  E E E E E E   E E E E E E E E   Q  E E E E E E    E  E E E E E E E
|----------------|-----------------|----------------|--------------------||
|----------------|-----------------|----------------|-------8-8-7-7-5-5--||
|-3--3-3-3-3-3-3-|-----5-5-6-6-7-7-|-8--8-8-8-8-8-8-|-10-10--------------||
|----------------|-6-6-------------|----------------|--------------------||


 Chorus
  Q  E E E E E E   Q  E E E E E E   Q  E E E E E E   E E E E E E E E
|----------------|----------------|----------------|------------------|
|----------------|----------------|----------------|------------------|
|-3--3-3-3-3-3-3-|-1--1-1-1-1-1-1-|----------------|-----0-0-1-1-2-2--|
|----------------|----------------|-1--1-1-1-1-1-1-|-3-3--------------|


  Q  E E E E E E   Q  E E E E E E   Q  E E E E E E   E E E E E E E E
|----------------|----------------|----------------|------------------||
|----------------|----------------|----------------|------------------||
|-3--3-3-3-3-3-3-|-1--1-1-1-1-1-1-|----------------|-----0-0-1-1-2-2--||
|----------------|----------------|-1--1-1-1-1-1-1-|-3-3--------------||


 Outro
  Q=150
  W          Wx9
|----------|--------*|
|----------|--------*|
|-3--------|--------*|
|----------|--------*|



Duration Legend
---------------
W - whole; H - half; Q - quarter; E - 8th; S - 16th; T - 32nd; X - 64th; a - acciaccatura
+ - note tied to previous; . - note dotted; .. - note double dotted
Uncapitalized letters represent notes that are staccato (1/2 duration)
Irregular groupings are notated above the duration line
Duration letters will always appear directly above the note/fret number it represents the
duration for.  Duration letters with no fret number below them represent rests.  Multi-
bar rests are notated in the form Wxn, where n is the number of bars to rest for.  Low
melody durations appear below the staff

Tablature Legend
----------------
 h   - hammer-on
 p   - pull-off
 b   - bend
 pb  - pre-bend
 r   - bend release (if no number after the r, then release immediately)
 /\  - slide into or out of (from/to "nowhere")
 s   - legato slide
 S   - shift slide
 - natural harmonic
[n]  - artificial harmonic
n(n) - tapped harmonic
 ~   - vibrato
 tr  - trill
 T   - tap
 TP  - trem. picking
 PM  - palm muting
\n/  - tremolo bar dip; n = amount to dip
 \n  - tremolo bar down
 n/  - tremolo bar up
/n\  - tremolo bar inverted dip
 =   - hold bend; also acts as connecting device for hammers/pulls
 <> - volume swell (louder/softer)
 x   - on rhythm slash represents muted slash
 o   - on rhythm slash represents single note slash

Misc Legend
-----------
 |  - bar
||  - double bar
||o - repeat start
o|| - repeat end
*|  - double bar (ending)
 :  - bar (freetime)
 $  - Segno
 &  - Coda
Tempo markers -  = BPM(8/16=s8/s16), where s8 = swing 8ths, s16 = swing 16ths

Suggest correction
Give kudos to tab author, rate the tab!
1 2 3 4 5
comments
print report bad tab
guest
You may want to rate the tab now too:
select rating
Wanna post a correction for this tab? Suggest correction