Oops, an error
Loading. Please wait.

Brad Logan Bass Tab

version 2
version 2

Whole song

238 views 1 this week
no commentswrite comment
1 2 3 4 5
please rate
add to favorites
launch autoscroll
font size
0
reset
guitar tuner
Tab Pro tools
  • play this tab
  • loop segment
  • change instrument
  • show fretboard
  • metronome
×
Best way to learn
"Brad Logan"
Autoscroll
slow
fast
+/-
esc
set tempo
stop
Contributor
----------------------------------------------------------------------------
		  Brad Logan (Demo/Ska-ish Version) - Rancid
----------------------------------------------------------------------------

#######################################
NOT VERSION THAT APPEARED ON SOUTH PARK
#######################################

Tabbed By: Lisle Geddes
e-mail: Lisle94@hotmail.co.uk

Tuning: Standard

This is my first tab so it might not be perfect. im not 100% certain its
all correct, theres more to this song than there first seems but I think its fairly 
accurate. There could be some mistakes on my behalf im not one for double checking thouroughly.

Intro    No Bass

1st Verse
G|-------------------------------------------------------------------------|
D|-------------------------------------------------------------------------|
A|---333------------333----333------------333------------------------------|
E|--------111--111--------------111--111-----------------------------------|

Pre Chorus
G|-----------------------------------------5-------------------------------|
D|---------33-10---------------------22-55-------------5-------------------|
A|------00------31-33---0-33----0-33-------------22-55---------------------|
E|---11--------------3-3-----3-3------------7\33---------------------------|

Chorus
G|-------------------------------------------------------------------------|
D|-----------------------------55------------------------------------------|
A|---33--------0-3-30-------33-----33---------0-3-30-------33---30---------|
E|------0010-1--------55-33-----------0010-1--------55-33----3-------------|

2nd Verse
G|-------------------------------------------------------------------------|
D|-------------------------------------------------------------------------|
A|---333------------333----333------------333------------------------------|
E|--------111--111--------------111--111-----------------------------------|

Pre Chorus
G|-----------------------------------------5-------------------------------|
D|---------33-10---------------------22-55-------------5-------------------|
A|------00------31-33---0-33----0-33-------------22-55---------------------|
E|---11--------------3-3-----3-3------------7\33---------------------------|

Chorus
G|-------------------------------------------------------------------------|
D|-----------------------------55------------------------------------------|
A|---33--------0-3-30-------33-----33---------0-3-30-------33---30---------|
E|------0010-1--------55-33-----------0010-1--------55-33----3-------------|

Solo Verse
G|-------------------------------------------------------------------------|
D|-------------------------------------------------------------------------|
A|---333------------333----333------------333------------------------------|
E|--------111--111--------------111--111-----------------------------------|


Pre Break    slightly different to the pre chorus
G|----------------------------------------------5--------------------------|
D|----------33----30----------------------22-55-------------03-5-3-20------|
A|------0-3----3------33------333----0-33---------------2-5------------3---|
E|---11------------------3--3-----3-----------------7\3--------------------|

Break Verse    No Bass

Final Chorus    slightly different to the chorus
G|-------------------------------------------------------------------------|
D|-----------------------------2-5-------2230-------5------------5-30------|
A|---33--------0-3-30------2-3-------33---------0-3----------33------3-----|
E|------0-10-1--------55-3--------------------1--------55-33---------------|



| /  slide up
| \  slide down
| h  hammer-on
| p  pull-off
| ~  vibrato
| +  harmonic
| x  Mute note
============================================================================
comments
We did not receive enough feedback on this tab! Please rate:
print report bad tab
1 2 3 4 5
I want to post or [tab]
guest
You may want to rate the tab now too:
select rating
Please do not post tabs as comments. Select "correction" instead!