Oops, an error
Loading. Please wait.

Brixton Bass Tab

1,505 views 1 this week
1 commentread comment
1 2 3 4 5
please rate
add to favorites
launch autoscroll
font size
0
reset
guitar tuner
Autoscroll
slow
fast
+/-
esc
set tempo
stop
Help us to improve Ultimate-Guitar.com Take our survey!
×
Author
-------------------------------------------------------------------------------
     BRIXTON - Rancid
-------------------------------------------------------------------------------

Tabbed By : Dustin Weber
e-mail: weberdustin88@gmail.com

Tuning: E A D G

***Please rate so I know whether or not I should try and make some changes*** 

Intro
G|-------------|
D|7--7--7-5-4--|
A|------------7|
E|-------------|
      (x1)

Chorus (First Time)
G|------------4-5-7-------------4-5-7|
D|-----------------------------------|
A|--5-5-32---2-3-5----5-5-32---2-3-5-|
E|55------3----------5------3--------|
                (x2)

Verse            
G|--------------------------------|---------|---------|
D|------4-775544--5544------------|---------|775544---|
A|--4-7--7------7-----775-5544----|---77-77-|------75-|
E|5--------------5-------5----7750|4/5-----5|--------7|
                (x3)                  (x3)     (x1)

Chorus (Second Time)
G|-----------4-5-7|
D|----------------|
A|-5-5-32---2-3-5-|
E|5------3--------|
        (x4)

Bridge 
G|-------------------------|
D|-------------------------|
A|-----------------4-7[x16]|
E|---------------5---------|
"And I wonder..."  (x1)

Verse            
G|--------------------------------|---------|---------|
D|------4-775544--5544------------|---------|775544---|
A|--4-7--7------7-----775-5544----|---77-77-|------75-|
E|5--------------5-------5----7750|4/5-----5|--------7|
                (x3)                  (x3)     (x1)

Chorus (Third Time)
G|-----------4-5-7|
D|----------------|
A|-5-5-32---2-3-5-|
E|5------3--------|
        (x4)

Short Bridge
G|-------|
D|775544-|
A|------7|
E|-------|
   (x1)

Chorus (Last Time)
G|------------4-5-7|-----------4-5-7|
D|-----------------|----------------|
A|55-55-32---2-3-5-|-5-5-32---2-3-5-|
E|--------3--------|5------3--------|
         (x1)             (x3)

Last Note
G|--|
D|--|
A|5\|
E|--|
 (x1)

| /  slide up
| \  slide down
| h  hammer-on
| p  pull-off
| ~  vibrato
| +  harmonic
| x  Mute note
===============================================================================
Suggest correction
What's this?
You can suggest a correction to this tab. Community and Mods will review your correction and vote to approve or reject it.
comments
We did not receive enough feedback on this tab! Please rate:
print report bad tab
1 2 3 4 5
1 comment total.
0 reply
lankycharlie 16 wrote on July 3 2009, 03:04 pm

many many thanks for this tab!!!!! spot on! better job than i was doing of it, this is one of the best rancid bass lines everm, and i will now be playing it for a loong time

guest
You may want to rate the tab now too:
select rating
Please do not post tabs as comments. Select "correction" instead!