Oops, an error
Loading. Please wait.

Crane Fist Bass Tab

version 3
version 3

Whole song

627 views 1 this week
2 commentsread comments
1 2 3 4 5
x 5
add to favorites
launch autoscroll
font size
0
reset
guitar tuner
Autoscroll
slow
fast
+/-
esc
set tempo
stop
Help us to improve Ultimate-Guitar.com Take our survey!
×
Author
Rancid
Crane Fist
Life Won't Wait

Im not going to put the whole order as theres only
3 parts to this song and its pretty obvious when they
change:

Main Riff
G------------------------2-----
D------2-4--4-2------2-4---4-2-
A-3--3----------3--3-----------
E------------------------------

Other Part
G-----------------------------
D--5-5-555-5--3-3333333-------
A-----------------------------
E-----------------------------

Other Other Part          
G----------      ----------
D-----5555-      -----2222-
A-3-3------      -0-0------
E---------- x4   ---------- x4

Mr Barbecue
Suggest correction
comments
print report bad tab
2 comments total.
0 reply
WildIrish 5,055 Aug 18, 2007 03:26 PM

the mid tab should be

G----------------------------------------|
D--5-5-5-5-5-5-5-5-5--3-3-3-3-3-3-3-3-3--|
A----------------------------------------|
E----------------------------------------|

but great tab main and solo right right on even with timeing

0 reply
robotfrom94 314 Apr 05, 2013 08:32 AM

The 'other other' bit should be


G----------------------------------------|
D-----5555-------------------------------|
A-3-3-----x4-------2222------------------|
E--------------0-0------x4---------------|

guest
You may want to rate the tab now too:
select rating
Wanna post a correction for this tab? Suggest correction