Oops, an error
Loading. Please wait.

Daly City Train Bass Tab

version 2
version 2

Whole song

Interactive

3,429 views 9 this week
1 commentread comment
1 2 3 4 5
x 4
add to favorites
launch autoscroll
font size
0
reset
guitar tuner
Autoscroll
slow
fast
+/-
esc
set tempo
stop
Help us to improve Ultimate-Guitar.com Take our survey!
×
Author
Difficulty
intermediate
-------------------------------------------------------------------------------
			     DALY CITY TRAIN - Rancid
-------------------------------------------------------------------------------

Tabbed By : Taylor Street
e-mail: taylorstreet@gmail.com

Tuning: Standard

Verse 1:
G|----------------------------------------|
D|---2-0-------2-0-----3-2-3-2-3-2--5555--|
A|-------23--------23---------------------|
E|-3---------3----------------------------|

G|-------------------------------------|
D|---2-5-25------------2-0-------------|
A|-3---------3-2-0---------23---5-5555-|
E|-----------------1-3--------3--------|

G|----------------------------------------|
D|---2-0-------2-0-----3-2-3-2-3-2--5555--|
A|-------23--------23---------------------|
E|-3---------3----------------------------|

G|--------------------------------------|
D|---2-5-25------------2-0--------------|
A|-3---------3-2-0---------23---0-1-2-3-|
E|-----------------1-3--------3---------|


Chorus:
G|-----------------------------------7-7-7-7------------------|
D|-----5-5-5-5------10-10-10-10--5-5----------5-5-3-3-2-2-----|
A|-3-3----------8-8---------------------------------------5-5-|
E|------------------------------------------------------------|

G|--------------------------------------------------------|
D|-----5-5-5-5----------------------------5-5-3-3-2-2-----|
A|-3-3--------------3-3-3-3------5-5-5-5--------------5-5-|
E|--------------1-1----------3-3--------------------------|


Verse 2:
G|----------------------------------------------------|
D|----------------------------------------------------|
A|-3-3-3-3-3-3-3-3------------------------------------|
E|-----------------1-1-1-1-1-1-1-1-3-3-3-3-1h3-3-3-3--|

G|------------------------------------------------------|
D|------------------------------------------------------|
A|-2h3-3-3-3-3-3-3-3-----------------------------0-1-2--|
E|-------------------1-1-1-1-1-1-1-1-3-3-3-3-3-3--------|


Transition/Outro:
G|-----------------|---|
D|-----------------|---|
A|-3---------------|-3-|
E|----1--3--11-3-1-|---|

Structure:
Intro (Guitar)  0:00
Verse 1  0:22
Chorus (x2) 0:45
Verse 1 (x2)  1:07
Chorus (x2)  1:53
Verse 1  2:15
Verse 2  2:37
Transition  2:49
Chorus (x2)  2:51
Outro  3:14

| /  slide up
| \  slide down
| h  hammer-on
| p  pull-off
| ~  vibrato
| +  harmonic
| x  Mute note
===============================================================================
Suggest correction
comments
print report bad tab
1 comment total.
+1 reply
NatDuv 160 Aug 25, 2013 10:46 AM

Thanks for the tab, but it should be

G|----------------------------------------|
D|---2-0--0-----2-0--0--3-2-3-2-3-2-35555-|
A|-------2----------2---------------------|
E|-3---------3----------------------------|

guest
You may want to rate the tab now too:
select rating
Wanna post a correction for this tab? Suggest correction