Oops, an error
Loading. Please wait.

Daly City Train tab

version 2
version 2

Whole song

Interactive

by Rancid
2,813 views 6 this week
no commentswrite comment
1 2 3 4 5
2 more votes to show rating
add to favorites
×
Save as Personal and add changes to this tab that will be seen only by you. Learn more ›
×
You can save this tab as Personal to edit and correct it or add notes. All changes will be seen only by you. Learn more »
launch autoscroll
font size
0
reset
how to read this tab
guitar tuner
edit
Autoscroll
slow
fast
+/-
esc
set tempo
stop
Author
----------------------------------------------------------------------------
                             Daly City Train - Rancid
----------------------------------------------------------------------------
Tabbed by: L.A.M.F. 77'


Tuning: Standard



Verse/Intro: Guitar 1

          G          G          G          G          F          F
e|---x---3--3---x---3--3---x---3--3---x---3--3---x---1--1---x---1--1---x---|
B|---x---3--3---x---3--3---x---3--3---x---3--3---x---1--1---x---1--1---x---|
G|---x---4--4---x---4--4---x---4--4---x---4--4---x---2--2---x---2--2---x---|
D|-------------------------------------------------------------------------|
A|-------------------------------------------------------------------------|
E|-------------------------------------------------------------------------|
      F          F          C          C          C          C         G
e|---1--1---x---1--1---x---3--3---x---3--3---x---3--3---x---3--3---x---3---|
B|---1--1---x---1--1---x---5--5---x---5--5---x---5--5---x---5--5---x---3---|
G|---2--2---x---2--2---x---5--5---x---5--5---x---5--5---x---5--5---x---4---|
D|-------------------------------------------------------------------------|
A|-------------------------------------------------------------------------|
E|-------------------------------------------------------------------------|
     G        G          G          G
e|---3---x---3--3---x---3--3---x---3--3---|
B|---3---x---3--3---x---3--3---x---3--3---|
G|---4---x---4--4---x---4--4---x---4--4---|
D|----------------------------------------|
A|----------------------------------------|
E|----------------------------------------|

  Guitar 2: (comes in with drums)

     G5         F5         C5
e|-------------------------------------------------------------------------|
B|-------------------------------------------------------------------------|
G|-------------------------5--5---5----------------------------------------|
D|---5--5---5---3--3---3---5--5---5----------------------------------------|
A|---5--5---5---3--3---3---3--3---3----------------------------------------|
E|---3--3---3---1--1---1---------------------------------------------------|
     *  *       *  *       *  *

     each chord is played the same amount of times as guitar 1. 


  Chorus: Guitar 1

          C          C           F          F          G          G

e|---x---3--3---x---3--3----x---1--1---x---1--1---x---3--3---x---3--3------|
B|---x---5--5---x---5--5----x---1--1---x---1--1---x---3--3---x---3--3------|
G|---x---5--5---x---5--5----x---2--2---x---2--2---x---4--4---x---4--4------|
D|-------------------------------------------------------------------------|
A|-------------------------------------------------------------------------|
E|-------------------------------------------------------------------------|
          G          G
e|---x---3--3---x---3--3----|
B|---x---3--3---x---3--3----|
G|---x---4--4---x---4--4----|
D|--------------------------|
A|--------------------------|
E|--------------------------|

  Guitar 2:


e|-------------------------------------------------------------------------|
B|-------------------------------------------------------------------------|
G|--------------------------------------3--5--5fb--5fb--5fbr--3------------|
D|---5--5--5-5--3h5--5--5-5--3h5--5--5-------------------------------------|
A|-------------------------------------------------------------------------|
E|-------------------------------------------------------------------------|

  Verse: Guitar 1

          G          G          G          G          F          F
e|---x---3--3---x---3--3---x---3--3---x---3--3---x---1--1---x---1--1---x---|
B|---x---3--3---x---3--3---x---3--3---x---3--3---x---1--1---x---1--1---x---|
G|---x---4--4---x---4--4---x---4--4---x---4--4---x---2--2---x---2--2---x---|
D|-------------------------------------------------------------------------|
A|-------------------------------------------------------------------------|
E|-------------------------------------------------------------------------|
      F          F          C          C          C          C         G
e|---1--1---x---1--1---x---3--3---x---3--3---x---3--3---x---3--3---x---3---|
B|---1--1---x---1--1---x---5--5---x---5--5---x---5--5---x---5--5---x---3---|
G|---2--2---x---2--2---x---5--5---x---5--5---x---5--5---x---5--5---x---4---|
D|-------------------------------------------------------------------------|
A|-------------------------------------------------------------------------|
E|-------------------------------------------------------------------------|
     G        G          G          G
e|---3---x---3--3---x---3--3---x---3--3---|
B|---3---x---3--3---x---3--3---x---3--3---|
G|---4---x---4--4---x---4--4---x---4--4---|
D|----------------------------------------|
A|----------------------------------------|
E|----------------------------------------|

  Guitar 2:

     G5         F5         C5
e|-------------------------------------------------------------------------|
B|-------------------------------------------------------------------------|
G|-------------------------5--5---5----------------------------------------|
D|---5--5---5---3--3---3---5--5---5----------------------------------------|
A|---5--5---5---3--3---3---3--3---3----------------------------------------|
E|---3--3---3---1--1---1---------------------------------------------------|
     *  *       *  *       *  *

  Chorus: Guitar 2


e|-------------------------------------------------------------------------|
B|-------------------------------------------------------------------------|
G|--------------------------------------3--5--5fb--5fb--5fbr--3------------|
D|---5--5--5-5--3h5--5--5-5--3h5--5--5-------------------------------------|
A|-------------------------------------------------------------------------|
E|-------------------------------------------------------------------------|

  Chorus: Guitar 1

          C          C           F          F          G          G

e|---x---3--3---x---3--3----x---1--1---x---1--1---x---3--3---x---3--3------|
B|---x---5--5---x---5--5----x---1--1---x---1--1---x---3--3---x---3--3------|
G|---x---5--5---x---5--5----x---2--2---x---2--2---x---4--4---x---4--4------|
D|-------------------------------------------------------------------------|
A|-------------------------------------------------------------------------|
E|-------------------------------------------------------------------------|
          G          G
e|---x---3--3---x---3--3----|
B|---x---3--3---x---3--3----|
G|---x---4--4---x---4--4----|
D|--------------------------|
A|--------------------------|
E|--------------------------|

  
  Bridge: Guitar 2 

e|--------------------------------|----------------------------------------|
B|--------------------------------|----------------------------------------|
G|--------------------------------|----------------------------------------|
D|--------12--12-12-12-12--11-----|---------10-----------------------------|
A|-----------------------------12-|-12--12-------12-12-12-12--10-----------|
E|---10---------------------------|----------------------------------------|





  Bridge: Guitar 1

          G          G          G          G          F          F
e|---x---3--3---x---3--3---x---3--3---x---3--3---x---1--1---x---1--1---x---|
B|---x---3--3---x---3--3---x---3--3---x---3--3---x---1--1---x---1--1---x---|
G|---x---4--4---x---4--4---x---4--4---x---4--4---x---2--2---x---2--2---x---|
D|-------------------------------------------------------------------------|
A|-------------------------------------------------------------------------|
E|-------------------------------------------------------------------------|
      F          F          C          C          C          C         G
e|---1--1---x---1--1---x---3--3---x---3--3---x---3--3---x---3--3---x---3---|
B|---1--1---x---1--1---x---5--5---x---5--5---x---5--5---x---5--5---x---3---|
G|---2--2---x---2--2---x---5--5---x---5--5---x---5--5---x---5--5---x---4---|
D|-------------------------------------------------------------------------|
A|-------------------------------------------------------------------------|
E|-------------------------------------------------------------------------|
     G        G          G          G
e|---3---x---3--3---x---3--3---x---3--3---|
B|---3---x---3--3---x---3--3---x---3--3---|
G|---4---x---4--4---x---4--4---x---4--4---|
D|----------------------------------------|
A|----------------------------------------|
E|----------------------------------------|

 
  Verse:

C          C           F          F          G          G

e|---x---3--3---x---3--3----x---1--1---x---1--1---x---3--3---x---3--3------|
B|---x---5--5---x---5--5----x---1--1---x---1--1---x---3--3---x---3--3------|
G|---x---5--5---x---5--5----x---2--2---x---2--2---x---4--4---x---4--4------|
D|-------------------------------------------------------------------------|
A|-------------------------------------------------------------------------|
E|-------------------------------------------------------------------------|
          G          G
e|---x---3--3---x---3--3----|
B|---x---3--3---x---3--3----|
G|---x---4--4---x---4--4----|
D|--------------------------|
A|--------------------------|
E|--------------------------|


   Guitar Break:

e|------------------------------------------|
B|------------------------------------------|
G|---5----------------------------5---------|
D|---5---3---5----3---3---5---3---5---------|
A|---3---3---5----3---3---5---3---3---------|
E|-------1---3----1---1---3---1-------------|


Chorus: Guitar 2


e|-------------------------------------------------------------------------|
B|-------------------------------------------------------------------------|
G|--------------------------------------3--5--5fb--5fb--5fbr--3------------|
D|---5--5--5-5--3h5--5--5-5--3h5--5--5-------------------------------------|
A|-------------------------------------------------------------------------|
E|-------------------------------------------------------------------------|

  
Chorus: Guitar 1

          C          C           F          F          G          G

e|---x---3--3---x---3--3----x---1--1---x---1--1---x---3--3---x---3--3------|
B|---x---5--5---x---5--5----x---1--1---x---1--1---x---3--3---x---3--3------|
G|---x---5--5---x---5--5----x---2--2---x---2--2---x---4--4---x---4--4------|
D|-------------------------------------------------------------------------|
A|-------------------------------------------------------------------------|
E|-------------------------------------------------------------------------|
          G          G
e|---x---3--3---x---3--3----|
B|---x---3--3---x---3--3----|
G|---x---4--4---x---4--4----|
D|--------------------------|
A|--------------------------|
E|--------------------------|

  End:

e|------------------------------------------|
B|------------------------------------------|
G|---5----------------------------5---------|
D|---5---3---5----3---3---5---3---5---------|
A|---3---3---5----3---3---5---3---3---------|
E|-------1---3----1---1---3---1-------------|


| fb full bend
| fbr full bend and release
| h  hammer-on
| *  palm-mute
| x  rhythm click ( executed by resting fretting fingers lightly on top of strings)
============================================================================











  



  






            
            
Suggest correction
Creating personal tab
Creating personal tab
You can edit any tab online and save it as your Personal.

You can edit, replace or remove any tab part or add personal notes – all changes will be seen only by you.

Personal tabs can be accessed anytime from any device, even offline.
Learn more »
Give kudos to tab author, rate the tab!
1 2 3 4 5
comments
print report bad tab
guest
You may want to rate the tab now too:
select rating
Wanna post a correction for this tab? Suggest correction