Oops, an error
Loading. Please wait.

Damnation Bass Tab

575 views 1 this week
no commentswrite comment
1 2 3 4 5
3 more votes to show rating
add to favorites
launch autoscroll
font size
0
reset
guitar tuner
Autoscroll
slow
fast
+/-
esc
set tempo
stop
Help us to improve Ultimate-Guitar.com Take our survey!
×
RANCID - DAMNATION
LET THE DOMINOES FALL: 2009
TABBED BY: JOSH HUGHFF
TUNING: STANDARD E.A.D.G

INTRO: X 2

G:|-------------------------------------|
D:|-------------------------------------|
A:|45555555------5-55-----------4555--55|
E:|---------3--3------5-55-3-33---------|


VERSE: X 2

G:|-----------------------------------|
D:|-----------------------------------|
A:|---------5-555555------------------|
E:|3-333333----------3-333333-5-555555|


PRE CHORUS: X 2

G:|-----------------------------------|
D:|-----------------------------------|
A:|---------5-555555------------------|
E:|7-777777----------3-333333-5-555555|


CHORUS: X 2

G:|-------------------------------------|
D:|-------------------------------------|
A:|45555555------5-55-----------4555--55|
E:|---------3--3------5-55-3-33---------|


VERSE: X 2


G:|-----------------------------------|
D:|-----------------------------------|
A:|---------5-555555------------------|
E:|3-333333----------3-333333-5-555555|


PRE CHORUS: X 2

G:|-----------------------------------|
D:|-----------------------------------|
A:|---------5-555555------------------|
E:|7-777777----------3-333333-5-555555|


CHORUS: X 2

G:|-------------------------------------|
D:|-------------------------------------|
A:|45555555------5-55-----------4555--55|
E:|---------3--3------5-55-3-33---------|

3RD TIME DO THIS
G:|------------------------------------|
D:|------------------------------------|
A:|----------4555--55-----------4555-55|
E:|5-55-3-33----------5-55-3-33--------|


ENDING: X 4
            
G:|--------|
D:|--------|
A:|--------|
E:|55555555|

AFTER 4TH TIME END ON
G:|--------|
D:|--------|
A:|5-------|
E:|--------|


THATS IT. SUCH AN EASY SONG TO PLAY. RANCID PUNX!!!

Suggest correction
Give kudos to tab author, rate the tab!
1 2 3 4 5
comments
print report bad tab
guest
You may want to rate the tab now too:
select rating
Wanna post a correction for this tab? Suggest correction