Oops, an error
Loading. Please wait.

Detroit Bass Tab

version 1
version 1

Whole song

7,855 views 9 this week
no commentswrite comment
1 2 3 4 5
please rate
add to favorites
launch autoscroll
font size
0
reset
guitar tuner
Tab Pro tools
  • play this tab
  • loop segment
  • change instrument
  • show fretboard
  • metronome
×
Best way to learn
"Detroit"
Autoscroll
slow
fast
+/-
esc
set tempo
stop
Contributor
- Rancid - Detroit
- Tabbed by: Pacu, bassist from a brazilian punk rock banda called PunkAss.
- The intro part you have to get the rythym right, just listen to the song then you'll get it.
__________
Intro
G|---9p7-9p7------6--6-----|-----|
D|-----------9--6--66-67h9-|-----|
A|-7-----------------------|-16x-|
E|-------------------------|-----|

Verse
G|-----------------------------------|----|
D|-------------4-------6----76-------|----|
A|----4-47--5-5--5--7-7--7----976----|-4x-|
E|-5-5---------------------------987-|----|

Chorus
G|--5-------------------------------------|----|
D|-7-765------5---------------------------|----|
A|------765--7-765-----544-544-544-544-54-|-2x-|
E|----------------765---------------------|----|

G|-----------------------|----|
D|----------5------------|----|
A|------7-77-7-5555-5545-|-1x-|
E|-5555------------------|----|

G|-------------------|----|
D|---------4-5-------|----|
A|---4-7-5-----5~-7~-|-1x-|
E|-5-----------------|----|

Verse
G|-----------------------------------|----|
D|-------------4-------6----76-------|----|
A|----4-47--5-5--5--7-7--7----976----|-4x-|
E|-5-5---------------------------987-|----|

Chorus
G|--5-------------------------------------|----|
D|-7-765------5---------------------------|----|
A|------765--7-765-----544-544-544-544-54-|-2x-|
E|----------------765---------------------|----|

G|-----------------------|----|
D|----------5------------|----|
A|------7-77-7-5555-5545-|-1x-|
E|-5555------------------|----|

G|-------------------|----|
D|---------4-5-------|----|
A|---4-7-5-----5~-7~-|-1x-|
E|-5-----------------|----|

Bridge I
G|----------------------------5-5-5-|----|
D|----------------------------------|----|
A|-------------------55555555-------|-3x-|
E|-55555555-33333333----------------|----|

G|----------------------------5-5-5--5-5-5--5-5-5-|----|
D|------------------------------------------------|----|
A|-------------------55555555---------------------|-1x-|
E|-55555555-33333333------------------------------|----|

Bridge II
G|---9p7-9p7------6--6-----|----|
D|-----------9--6--66-67h9-|----|
A|-7-----------------------|-4x-|
E|-------------------------|----|

Verse
G|-----------------------------------|----|
D|-------------4-------6----76-------|----|
A|----4-47--5-5--5--7-7--7----976----|-4x-|
E|-5-5---------------------------987-|----|

Chorus
G|--5-------------------------------------|----|
D|-7-765------5---------------------------|----|
A|------765--7-765-----544-544-544-544-54-|-2x-|
E|----------------765---------------------|----|

G|-----------------------|----|
D|----------5------------|----|
A|------7-77-7-5555-5545-|-1x-|
E|-5555------------------|----|

G|-------------------|----|
D|---------4-5-------|----|
A|---4-7-5-----5~-7~-|-1x-|
E|-5-----------------|----|

Ending
G|----|----|
D|----|----|
A|----|-1x-|
E|-5\-|----|
comments
We did not receive enough feedback on this tab! Please rate:
print report bad tab
1 2 3 4 5
I want to post or [tab]
guest
You may want to rate the tab now too:
select rating
Please do not post tabs as comments. Select "correction" instead!