Oops, an error
Loading. Please wait.

Detroit Bass Tab

version 2
version 2

Whole song

6,130 views 3 this week
2 commentsread comments
1 2 3 4 5
x 7
add to favorites
launch autoscroll
font size
0
reset
guitar tuner
Autoscroll
slow
fast
+/-
esc
set tempo
stop
Help us to improve Ultimate-Guitar.com Take our survey!
×
Author
Difficulty
advanced
This is my first tab so hopefully its correct please rate!
Tabbed by listening.

Intro x16     (listen carefully it speeds up)

G---9-7-9-7-----9-------6----|
D-----------9-6---6-6-7---9--|
A-7------------------------9-|
E----------------------------|


Verse x4

G-------------------------------|
D-----------4------6-9-775544---|
A----4-7-55---5-77-----------77-|
E-55----------------------------|


Chorus x2                            Second Part to Chorus x1

G--5---------------------------------|------------------------------------|
D-7-75-----5-------------------------|----------------------------4-7-----|
A-----76547-7654-55554555545555455554|-----7777-5555-5555---4-7-5-----7-5-|
E---------------5--------------------|-5555---------------5---------------|


Verse x4
Chorus x2


Bridge x4

G----------------------------|
D----------------------------|
A---------------5-5555-3-3-3-|
E-5-5555-3-3333--------------|

Intro x4
Verse x4

Outro x1

G--5---------------------------------|---------------------------------------|
D-7-75-----5-------------------------|----------------------------4-7--------|
A-----76547-7654-55554555545555455554|-----7777-5555-5555---4-7-5-----7-5----|
E---------------5--------------------|-5555---------------5---------------5~-|
Suggest correction
comments
print report bad tab
2 comments total.
+1 reply
Thumper97 10 Jul 24, 2008 02:29 PM

This is certainly a lot better than the first version of the song. As far as i can tell, good job on this one. Punk bass lines are the greatest!

0 reply
Ancient Mariner 10 Aug 02, 2015 02:22 PM

Pretty good actually!

guest
You may want to rate the tab now too:
select rating
Wanna post a correction for this tab? Suggest correction