Oops, an error
Loading. Please wait.

Devils Dance Bass Tab

1,058 views 3 this week
no commentswrite comment
1 2 3 4 5
3 more votes to show rating
add to favorites
launch autoscroll
font size
0
reset
guitar tuner
Autoscroll
slow
fast
+/-
esc
set tempo
stop
Help us to improve Ultimate-Guitar.com Take our survey!
×
Author
Difficulty
novice
-------------------------------------------------------------------------------
			       DEVILS DANCE - Rancid
-------------------------------------------------------------------------------

Album: B Sides and C Sides

W - whole
H - half
Q - quarter
E - 8th
L - tied note

keep in mind that the song is played on double bass..
sounds good on electric too but still..
xxSID

Intro
     E  E  E  E  E  E  E  E     E  E  E  E  E  E  E  E   
G||--------------------------|--------------------------|
D||--------2--4--2--4--2-----|--------------------------|
A||--0--4-----------------4--|--------2--4-----4--2--4--|
E||--------------------------|--0--4--------0-----------|


  E  E  E  E  E  E  E  E     E  E  E  E  E  E  E  E   
--------------------------|--------------------------|
--------------------------|--------2--4--2--4--2-----|
--5--5--3--3--2--2--0--0--|--0--4-----------------4--|
--------------------------|--------------------------|


  E  E  E  E  E  E  E  E     E  E  E  E  E  E  E  E   
--------------------------|--------------------------|
--------2--4--2--4--2-----|--------------------------|
--0--4-----------------4--|--------2--4--2--4--2--4--|
--------------------------|--0--4--------------------|


  E  E  E  E  E  E  E  E     E  E  E  E  E  E  E  E   
--------------------------|--------------------------|
--------------------------|--------2--4--2--4--2-----|
--5--5--3--3--2--2--0--0--|--0--4-----------------4--|
--------------------------|--------------------------|


Part 1
  E  E  E  E  E  E  E  E     E  E  E  E  E  E  E  E   
--------------2-----------|--------------------------|
--------2--4-----4--2-----|--------------2-----------|
--0--4-----------------4--|--------2--4-----4--2--4--|
--------------------------|--0--4--------------------|


  E  E  E  E  E  E  E  E     E  E  E  E  E  E  E  E   
--------------------------|--------------------------|
--------------------------|--------2--4--2--4--2-----|
--5--5--3--3--2--2--0--0--|--0--4-----------------4--|
--------------------------|--------------------------|


  E  E  E  E  E  E  E  E     E  E  E  E  E  E  E  E   
--------------2-----------|--------------------------|
--------2--4-----4--2-----|--------------2-----------|
--0--4-----------------4--|--------2--4-----4--2--4--|
--------------------------|--0--4--------------------|


  E  E  E  E  E  E  E  E     E  E  E  E  E  E  E  E   
--------------------------|--------------2-----------|
--------------------------|--------2--4-----4--2-----|
--5--5--3--3--2--2--0--0--|--0--4-----------------4--|
--------------------------|--------------------------|


    E  E  E  E  E  E  E  E     E  E  E  E  E  E  E  E   3x
|---------------------------|---------------------------||
|*--------------------------|--------------------------*||
|*--5--5--3--3--2--2--0--0--|--0--0--------------------*||
|---------------------------|--------3--3--2--2--0--0---||


  E  E  E  E  E  E  E  E     E  E  E  E  E  E  E  E   
--------------------------|--------------------------|
--------------------------|--------------------------|
--------2--4--------2--4--|--------2--4--2--4--2-----|
--0--3--------0--3--------|--0--3-----------------3--|


  E  E  E  E  E  E  E  E     E  E  E  E  E  E  E  E   
--------------------------|--------------------------|
--------------------------|--------------------------|
--0--3--0-----0--3--0-----|--------------------------|
-----------3-----------3--|--0--3--0--3--0--3--0--3--|


  E  E  E  E  E  E  E  E     E  E  E  E  E  E  E  E   
--------------------------|--------------------------|
--------------------------|--------------------------|
--5--5--3--3--2--2--0--0--|--0--3--0-----0--3--0-----|
--------------------------|-----------3-----------3--|


  E  E  E  E  E  E  E  E     E  E  E  E  E  E  E  E   
--------------------------|--------------------------|
--------------------------|--------------------------|
--0--3--0-----0--3--0-----|--------------------------|
-----------3-----------3--|--0--3--0--3--0--3--0--3--|


  E  E  E  E  E  E  E  E     E  E  E  E  E  E  E  E   
--------------------------|--------------------------|
--------------------------|--------------------------|
--5--5--3--3--2--2--0--0--|--0--3--0-----------0--3--|
--------------------------|-----------3--0--3--------|

REPEAT PART 1

Part 2 & Outro
    E  E  E  E  E  E  E  E     E  E  E  E  E  E  E  E   
|---------------2-----------|--------------------------|
|*--------2--4-----4--2-----|--------------2-----------|
|*--0--4-----------------4--|--------2--4-----4--2--4--|
|---------------------------|--0--4--------------------|


  E  E  E  E  E  E  E  E     E  E  E  E  E  E  E  E     
--------------------------|---------------------------||
--------------------------|--------2--4--2--4--2-----*||
--5--5--3--3--2--2--0--0--|--0--4-----------------4--*||
--------------------------|---------------------------||


   E  E  E  E  E  E  E  E   3x  E  E  E  E  E  E  E  E   
||----------------------------||--------------2-----------|
||*--------------------------*||--------2--4-----4--2-----|
||*--------2--4--5--4--2-----*||--0--4-----------------4--|
||---0--4-----------------4---||--------------------------|


  E  E  E  E  E  E  E  E     E  E  E  E  E  E  E  E   
--------------------------|--------------------------|
--------------2-----------|--------------------------|
--------2--4-----4--2--4--|--5--5--3--3--2--2--0--0--|
--0--4--------------------|--------------------------|


  E  E  E  E  E  E  E  E     E  E  E  E  E  E  E  E   
--------------------------|--------------2-----------|
--------2--4--2--4--2-----|--------2--4-----4--2-----|
--0--4-----------------4--|--0--4-----------------4--|
--------------------------|--------------------------|


  E  E  E  E  E  E  E  E     E  E  E  E  E  E  E  E   
--------------------------|--------------------------|
--------------2-----------|--------------------------|
--------2--4-----4--2--4--|--5--5--3--3--2--2--0--0--|
--0--4--------------------|--------------------------|


  E  E  E  E  E  E  E  E       E  E  E  E  E  E  E  E   
--------------2-----------||---------------------------|
--------2--4-----4--2-----||*--------------------------|
--0--4-----------------4--||*--5--5--3--3--2--2--0--0--|
--------------------------||---------------------------|


  E  E  E  E  E  E  E  E   3x  Q    Q    Q    Q       Q    Q    H         
---------------------------||----------------------|---------------------|
--------------------------*||----------------------|---------------------|
--0--0--------------------*||----------------------|-------1----0--------|
--------3--3--2--2--0--0---||--0-------------------|---------------------|


  W                  
-------------------||
-------------------||
--L----------------||
-------------------||
Suggest correction
Give kudos to tab author, rate the tab!
1 2 3 4 5
comments
print report bad tab
guest
You may want to rate the tab now too:
select rating
Wanna post a correction for this tab? Suggest correction