Oops, an error
Loading. Please wait.

Diabolical tab

by Rancid
220 views 1 this week
no commentswrite comment
1 2 3 4 5
1 last vote to show rating
add to favorites
×
Save as Personal and add changes to this tab that will be seen only by you. Learn more ›
×
You can save this tab as Personal to edit and correct it or add notes. All changes will be seen only by you. Learn more »
launch autoscroll
font size
0
reset
how to read this tab
guitar tuner
edit
Autoscroll
slow
fast
+/-
esc
set tempo
stop
[Intro]

   C5                G5      C5                F5        G5      C5
e|-----------------|-----------------|-----------------|-----------------|
B|-----------------|-----------------|-----------------|-----------------|
G|-5-5-5-5-5-5-5-5-|---------5-5-5-5-|-5-5-5-5---------|---------5-5-5-5-|
D|-5-5-5-5-5-5-5-5-|-5-5-5-5-5-5-5-5-|-5-5-5-5-3-3-3-3-|-5-5-5-5-5-5-5-5-|
A|-3-3-3-3-3-3-3-3-|-5-5-5-5-3-3-3-3-|-3-3-3-3-3-3-3-3-|-5-5-5-5-3-3-3-3-|
E|-----------------|-3-3-3-3---------|---------1-1-1-1-|-3-3-3-3---------|

   C5                G5      C5                F5        G5      C5
e|-----------------|-----------------|-----------------|-----------------|
B|-----------------|-----------------|-----------------|-----------------|
G|-5-5-5-5-5-5-5-5-|---------5-5-5-5-|-5-5-5-5---------|---------5-5-5-5-|
D|-5-5-5-5-5-5-5-5-|-5-5-5-5-5-5-5-5-|-5-5-5-5-3-3-3-3-|-5-5-5-5-5-5-5-5-|
A|-3-3-3-3-3-3-3-3-|-5-5-5-5-3-3-3-3-|-3-3-3-3-3-3-3-3-|-5-5-5-5-3-3-3-3-|
E|-----------------|-3-3-3-3---------|---------1-1-1-1-|-3-3-3-3---------|


[Break 1]

e|-0-0-0-0-0-0-0-0-|-1-1-1-1-0-0-0-0-|-0-0-0-0-1-1-1-1-|-1-1-1-1-0-0-0-0-|
B|-1-1-1-1-1-1-1-1-|-0-0-0-0-1-1-1-1-|-1-1-1-1-1-1-1-1-|-0-0-0-0-1-1-1-1-|
G|-----------------|-----------------|-----------------|-----------------|
D|-----------------|-----------------|-----------------|-----------------|
A|-----------------|-----------------|-----------------|-----------------|
E|-----------------|-----------------|-----------------|-----------------|


[Verse 1]

   C5                G5      C5                          G5      C5
e|-----------------|-----------------|-----------------|-----------------|
B|-----------------|-----------------|-----------------|-----------------|
G|-5-5-5-5-5-5-5-5-|---------5-5-5-5-|-5-5-5-5-5-5-5-5-|---------5-5-5-5-|
D|-5-5-5-5-5-5-5-5-|-5-5-5-5-5-5-5-5-|-5-5-5-5-5-5-5-5-|-5-5-5-5-5-5-5-5-|
A|-3-3-3-3-3-3-3-3-|-5-5-5-5-3-3-3-3-|-3-3-3-3-3-3-3-3-|-5-5-5-5-3-3-3-3-|
E|-----------------|-3-3-3-3---------|-----------------|-3-3-3-3---------|

   F5                C5                G5                C5      G5
e|-----------------|-----------------|-----------------|-----------------|
B|-----------------|-----------------|-----------------|-----------------|
G|-----------------|-5-5-5-5-5-5-5-5-|-----------------|-5-5-5-5---------|
D|-3-3-3-3-3-3-3-3-|-5-5-5-5-5-5-5-5-|-5-5-5-5-5-5-5-5-|-5-5-5-5-5-5-5-5-|
A|-3-3-3-3-3-3-3-3-|-3-3-3-3-3-3-3-3-|-5-5-5-5-5-5-5-5-|-3-3-3-3-5-5-5-5-|
E|-1-1-1-1-1-1-1-1-|-----------------|-3-3-3-3-3-3-3-3-|---------3-3-3-3-|


[Chorus 1]

   C5                G5      C5                F5        G5      C5
e|-----------------|-----------------|-----------------|-----------------|
B|-----------------|-----------------|-----------------|-----------------|
G|-5-5-5-5-5-5-5-5-|---------5-5-5-5-|-5-5-5-5---------|---------5-5-5-5-|
D|-5-5-5-5-5-5-5-5-|-5-5-5-5-5-5-5-5-|-5-5-5-5-3-3-3-3-|-5-5-5-5-5-5-5-5-|
A|-3-3-3-3-3-3-3-3-|-5-5-5-5-3-3-3-3-|-3-3-3-3-3-3-3-3-|-5-5-5-5-3-3-3-3-|
E|-----------------|-3-3-3-3---------|---------1-1-1-1-|-3-3-3-3---------|

   C5                G5      C5                F5        G5      C5
e|-----------------|-----------------|-----------------|-----------------|
B|-----------------|-----------------|-----------------|-----------------|
G|-5-5-5-5-5-5-5-5-|---------5-5-5-5-|-5-5-5-5---------|---------5-5-5-5-|
D|-5-5-5-5-5-5-5-5-|-5-5-5-5-5-5-5-5-|-5-5-5-5-3-3-3-3-|-5-5-5-5-5-5-5-5-|
A|-3-3-3-3-3-3-3-3-|-5-5-5-5-3-3-3-3-|-3-3-3-3-3-3-3-3-|-5-5-5-5-3-3-3-3-|
E|-----------------|-3-3-3-3---------|---------1-1-1-1-|-3-3-3-3---------|


[Break 2]

e|-0-0-0-0-0-0-0-0-|-1-1-1-1-0-0-0-0-|-0-0-0-0-1-1-1-1-|-1-1-1-1-0-0-0-0-|
B|-1-1-1-1-1-1-1-1-|-0-0-0-0-1-1-1-1-|-1-1-1-1-1-1-1-1-|-0-0-0-0-1-1-1-1-|
G|-----------------|-----------------|-----------------|-----------------|
D|-----------------|-----------------|-----------------|-----------------|
A|-----------------|-----------------|-----------------|-----------------|
E|-----------------|-----------------|-----------------|-----------------|


[Verse 2]

   C5                G5      C5                          G5      C5
e|-----------------|-----------------|-----------------|-----------------|
B|-----------------|-----------------|-----------------|-----------------|
G|-5-5-5-5-5-5-5-5-|---------5-5-5-5-|-5-5-5-5-5-5-5-5-|---------5-5-5-5-|
D|-5-5-5-5-5-5-5-5-|-5-5-5-5-5-5-5-5-|-5-5-5-5-5-5-5-5-|-5-5-5-5-5-5-5-5-|
A|-3-3-3-3-3-3-3-3-|-5-5-5-5-3-3-3-3-|-3-3-3-3-3-3-3-3-|-5-5-5-5-3-3-3-3-|
E|-----------------|-3-3-3-3---------|-----------------|-3-3-3-3---------|

   F5.               C5                G5                C5      G5
e|-----------------|-----------------|-----------------|-----------------|
B|-----------------|-----------------|-----------------|-----------------|
G|-----------------|-5-5-5-5-5-5-5-5-|-----------------|-5-5-5-5---------|
D|-3-3-3-3-3-3-3-3-|-5-5-5-5-5-5-5-5-|-5-5-5-5-5-5-5-5-|-5-5-5-5-5-5-5-5-|
A|-3-3-3-3-3-3-3-3-|-3-3-3-3-3-3-3-3-|-5-5-5-5-5-5-5-5-|-3-3-3-3-5-5-5-5-|
E|-1-1-1-1-1-1-1-1-|-----------------|-3-3-3-3-3-3-3-3-|---------3-3-3-3-|


[Chorus 2]

   C5                G5      C5                F5        G5      C5
e|-----------------|-----------------|-----------------|-----------------|
B|-----------------|-----------------|-----------------|-----------------|
G|-5-5-5-5-5-5-5-5-|---------5-5-5-5-|-5-5-5-5---------|---------5-5-5-5-|
D|-5-5-5-5-5-5-5-5-|-5-5-5-5-5-5-5-5-|-5-5-5-5-3-3-3-3-|-5-5-5-5-5-5-5-5-|
A|-3-3-3-3-3-3-3-3-|-5-5-5-5-3-3-3-3-|-3-3-3-3-3-3-3-3-|-5-5-5-5-3-3-3-3-|
E|-----------------|-3-3-3-3---------|---------1-1-1-1-|-3-3-3-3---------|

   C5                G5      C5                F5        G5      C5
e|-----------------|-----------------|-----------------|-----------------|
B|-----------------|-----------------|-----------------|-----------------|
G|-5-5-5-5-5-5-5-5-|---------5-5-5-5-|-5-5-5-5---------|---------5-5-5-5-|
D|-5-5-5-5-5-5-5-5-|-5-5-5-5-5-5-5-5-|-5-5-5-5-3-3-3-3-|-5-5-5-5-5-5-5-5-|
A|-3-3-3-3-3-3-3-3-|-5-5-5-5-3-3-3-3-|-3-3-3-3-3-3-3-3-|-5-5-5-5-3-3-3-3-|
E|-----------------|-3-3-3-3---------|---------1-1-1-1-|-3-3-3-3---------|


[Solo]

e|-3-3-3-3-3-3-3-3-|-3-3-3-3-3-3-3-3-|-1-1-1-1-1-1-1-1-|-1-1-1-1-1-1-1-1-|
B|-3-3-3-3-3-3-3-3-|-3-3-3-3-3-3-3-3-|-1-1-1-1-1-1-1-1-|-1-1-1-1-1-1-1-1-|
G|-----------------|-----------------|-----------------|-----------------|
D|-----------------|-----------------|-----------------|-----------------|
A|-----------------|-----------------|-----------------|-----------------|
E|-----------------|-----------------|-----------------|-----------------|

e|-----------------|-----------------|-7-7-7-7-7-7-7-7-|-7-7-7-7-7-7-7-7-|
B|-5-5-5-5-5-5-5-5-|-5-5-5-5-5-5-5-5-|-8-8-8-8-8-8-8-8-|-8-8-8-8-8-8-8-8-|
G|-5-5-5-5-5-5-5-5-|-5-5-5-5-5-5-5-5-|-----------------|-----------------|
D|-----------------|-----------------|-----------------|-----------------|
A|-----------------|-----------------|-----------------|-----------------|
E|-----------------|-----------------|-----------------|-----------------|

e|-13-13-13-13-13-13-13-13-|-13-13-13-13-13-13-13-13-|-----------------|-----------------|
B|-13-13-13-13-13-13-13-13-|-13-13-13-13-13-13-13-13-|-5-5-5-5-5-5-5-5-|-5-5-5-5-5-5-5-5-|
G|-------------------------|-------------------------|-5-5-5-5-5-5-5-5-|-5-5-5-5-5-5-5-5-|
D|-------------------------|-------------------------|-----------------|-----------------|
A|-------------------------|-------------------------|-----------------|-----------------|
E|-------------------------|-------------------------|-----------------|-----------------|

e|-3-3-3-3-3-3-3-3-|-3-3-3-3-3-3-3-3-|
B|-3-3-3-3-3-3-3-3-|-3-3-3-3-3-3-3-3-|
G|-----------------|-----------------|
D|-----------------|-----------------|
A|-----------------|-----------------|
E|-----------------|-----------------|


[Chorus 3]

   C5                G5      C5                F5        G5      C5
e|-----------------|-----------------|-----------------|-----------------|
B|-----------------|-----------------|-----------------|-----------------|
G|-5-5-5-5-5-5-5-5-|---------5-5-5-5-|-5-5-5-5---------|---------5-5-5-5-|
D|-5-5-5-5-5-5-5-5-|-5-5-5-5-5-5-5-5-|-5-5-5-5-3-3-3-3-|-5-5-5-5-5-5-5-5-|
A|-3-3-3-3-3-3-3-3-|-5-5-5-5-3-3-3-3-|-3-3-3-3-3-3-3-3-|-5-5-5-5-3-3-3-3-|
E|-----------------|-3-3-3-3---------|---------1-1-1-1-|-3-3-3-3---------|

   C5                G5      C5                F5        G5      C5
e|-----------------|-----------------|-----------------|-----------------|
B|-----------------|-----------------|-----------------|-----------------|
G|-5-5-5-5-5-5-5-5-|---------5-5-5-5-|-5-5-5-5---------|---------5-5-5-5-|
D|-5-5-5-5-5-5-5-5-|-5-5-5-5-5-5-5-5-|-5-5-5-5-3-3-3-3-|-5-5-5-5-5-5-5-5-|
A|-3-3-3-3-3-3-3-3-|-5-5-5-5-3-3-3-3-|-3-3-3-3-3-3-3-3-|-5-5-5-5-3-3-3-3-|
E|-----------------|-3-3-3-3---------|---------1-1-1-1-|-3-3-3-3---------|


[Outro]

   C5      F5        G5      C5                F5        G5      C5
e|-----------------|-----------------|-----------------|-----------------|
B|-----------------|-----------------|-----------------|-----------------|
G|-5-5-5-5-5-5-5-5-|---------5-5-5-5-|-5-5-5-5---------|---------5-------|
D|-5-5-5-5-5-5-5-5-|-5-5-5-5-5-5-5-5-|-5-5-5-5-3-3-3-3-|-5-5-5-5-5-------|
A|-3-3-3-3-3-3-3-3-|-5-5-5-5-3-3-3-3-|-3-3-3-3-3-3-3-3-|-5-5-5-5-3-------|
E|-----------------|-3-3-3-3---------|---------1-1-1-1-|-3-3-3-3---------|


            
            
Suggest correction
Creating personal tab
Creating personal tab
You can edit any tab online and save it as your Personal.

You can edit, replace or remove any tab part or add personal notes – all changes will be seen only by you.

Personal tabs can be accessed anytime from any device, even offline.
Learn more »
Give kudos to tab author, rate the tab!
1 2 3 4 5
comments
print report bad tab
guest
You may want to rate the tab now too:
select rating
Wanna post a correction for this tab? Suggest correction