Oops, an error
Loading. Please wait.

Disconnected Bass Tab

2,701 views 3 this week
no commentswrite comment
1 2 3 4 5
please rate
add to favorites
launch autoscroll
font size
0
reset
guitar tuner
Autoscroll
slow
fast
+/-
esc
set tempo
stop
Help us to improve Ultimate-Guitar.com Take our survey!
×
Difficulty
novice
-----------------------------------------------------------------------------
			     DISCONNECTED - Rancid
-----------------------------------------------------------------------------

Tabbed By : Union Man
e-mail: misterrrspok@gmail.com

Tuning:GDAE

Choruses:
G|---------------330------------02330------------02330-----------0-3-------|
D|------3-3301-0----3----3-3301------3----3-3301------3----330-1-----------|
A|(8)1-1--------3-----1-1--------------1-1---------------1-----------------|
E|-------------------------------------------------------------------------|

Verses:
G|----------------|
D|----33331111----|
A|1111--------3333|X4
E|----------------|

Bridge:
G|--------------------------------023-3-----3---3---3-3-----3---3--|
D|---3-33---3---3-----3-33---3---3-----3-33---3---3----3-33---3---3|
A|1-1-----1---1---1-1------1---1-----------------------------------|
E|-----------------------------------------------------------------|
Suggest correction
What's this?
You can suggest a correction to this tab. Community and Mods will review your correction and vote to approve or reject it.
comments
We did not receive enough feedback on this tab! Please rate:
print report bad tab
1 2 3 4 5
guest
You may want to rate the tab now too:
select rating
Please do not post tabs as comments. Select "correction" instead!