Oops, an error
Loading. Please wait.

Dont Call Me White Bass Tab

769 views 6 this week
no commentswrite comment
1 2 3 4 5
please rate
add to favorites
launch autoscroll
font size
0
reset
guitar tuner
Tab Pro tools
  • play this tab
  • loop segment
  • change instrument
  • show fretboard
  • metronome
×
Best way to learn
"Dont Call Me White"
Autoscroll
slow
fast
+/-
esc
set tempo
stop
Contributor
Rancid - Don't Call Me White

Tabbed by THeJimSTeR~

Here's the Rancid version of
NOFX's "Don't Call Me White"


Intro x2

G-----------
D-----------
A-----------
E--2---5---0

Bass Solo

G-9-7---7-----------------
D-----9---9-7-9-7---7-----
A-----------------9---9-7-
E------------------------- 
(I used Matt's (fightillyoudie)
tab for the solo.  It sounds 
about right)

Verse

G-----------------------------------
D-----------------------------------
A-----------------------------------
E-222222-555555-000000000000-------- x2

G-----------------------------------
D-----------------------------------
A-----------------------------------
E-222222-555555-222222-000000-------


I dont have the greatest ear for these 
things, but the next line is either
G-----------------------------------
D-----------------------------------
A-12-10-9-7-5-3-2-0-----------------
E-----------------------------------

or

G-----------------------------------
D-----------------------------------
A-----------------------------------
E-555555555555----------------------

Chorus

G-----------------------------------
D-----------------------------------
A-----------------------------------
E-222222-555555-000000000000-------- x2

Verse x1

Chorus

G-----------------------------------
D-----------------------------------
A-----------------------------------
E-222222-555555-000000000000--------

G----------------
D----------------
A----------------
E-222222-555555--

G---------------------------------------------------
D---------------------------------------------------
A-444444444444-222222222222-000000000000------------
E---------------------------------------000000000000 x2

G----------------
D----------------
A----------------
E-222222-555555--

G-------------
D-------------
A-------------
E-000000------ x8

Breakdown

G----------------------------------
D----------------------------------
A-777777777777-5-7-9-10-12-10-9-7--
E---------------------------------- x4

G-----------------------------------
D-----------------------------------
A-----------------------------------
E-222222-555555-222222-000000-------

G-----------------------------------
D-----------------------------------
A-----------------------------------
E-555555555555----------------------

G------------
D------------
A------------
E-2----5----0 x2

Chorus

G-----------------------------------
D-----------------------------------
A-----------------------------------
E-222222-555555-000000000000--------

G-----------------------------------
D-----------------------------------
A-----------------------------------
E-222222-555555-0-------------------

I aint part of no conspiracy
I'm just your average Joe.
comments
We did not receive enough feedback on this tab! Please rate:
print report bad tab
1 2 3 4 5
I want to post or [tab]
guest
You may want to rate the tab now too:
select rating
Please do not post tabs as comments. Select "correction" instead!