Oops, an error
Loading. Please wait.

Dope Sick Girl Chords

version 1
version 1

Whole song

  • This chord sheet features lead guitar parts writte... Show more

Interactive

37 views 3 this week
no commentswrite comment
1 2 3 4 5
3 more votes to show rating
add to favorites
launch autoscroll
font size
0
reset
transpose
0
reset
display chords
guitar tuner
Autoscroll
slow
fast
+/-
esc
set tempo
stop
Help us to improve Ultimate-Guitar.com Take our survey!
×
Author
Difficulty
About this tab version
This chord sheet features lead guitar parts written as tablature and includes lyrics. Was this info helpful? Yes No
[Intro]
  Bass 
  N.C.
G|----------------------------|----------------------------|----------------------------|
D|------7------7-----7-10-9-7-|------7------7-----7-10-9-7-|------7------7-----7-10-9-7-|
A|-7h10---7h10--7h10----------|-7h10---7h10--7h10----------|-7h10---7h10--7h10----------|
E|----------------------------|----------------------------|----------------------------|

G|----------------------------|
D|--7---9---10---9---7--------|
A|-----------------------10---|
E|----------------------------|

  Bass, Guitar, Drums, and Vocals
  N.C.  
e|--5-------------------------|--5~~~~~~~~~~~~~~~~~~-------|--5~~~~~~~~~~~~~~~~~~-------|
B|----------------------------|--5~~~~~~~~~~~~~~~~~~-------|----------------------------|
G|----------------------------|----------------------------|----------------------------|
D|----------------------------|----------------------------|----------------------------|
A|----------------------------|----------------------------|----------------------------|
E|----------------------------|----------------------------|----------------------------|
      This song's about a girl         Who ripped me off

e|---10---10---10---12---12---|------5-----5-----5--8-7-5--|------5-----5-----5--8-7-5--|
B|----------------------------|--5h8---5h8---5h8-----------|--5h8---5h8---5h8-----------|
G|----------------------------|----------------------------|----------------------------|
D|----------------------------|----------------------------|----------------------------|
A|----------------------------|----------------------------|----------------------------|
E|----------------------------|----------------------------|----------------------------|
             She was dope sick

e|------5-----5-----5--8-7-5--|---5---7---8---7---5--------|------5-----5-----5--8-7-5--|
B|--5h8---5h8---5h8-----------|-----------------------8----|--5h8---5h8---5h8-----------|
G|----------------------------|----------------------------|----------------------------|
D|----------------------------|----------------------------|----------------------------|
A|----------------------------|----------------------------|----------------------------|
E|----------------------------|----------------------------|----------------------------|

e|------5-----5-----5--8-7-5--|------5-----5-----5--8-7-5--|---5---7---8---7---5--------|
B|--5h8---5h8---5h8-----------|--5h8---5h8---5h8-----------|-----------------------8----|
G|----------------------------|----------------------------|----------------------------|
D|----------------------------|----------------------------|----------------------------|
A|----------------------------|----------------------------|----------------------------|
E|----------------------------|----------------------------|----------------------------|


[Verse]
A              D  
Dope sick girl hit and run
E           D
She took my money
A            D
Eighty seven dollars gone
E         D      
Now she's running


[Chorus]
D       A E    A
How was I I to know
D               A
That girl could take my heart
E              A
Everywhere she go


[Verse]
A                D              E         D
Dope sick girl a rig and a rid she got no freedom
A                   D           E           D
Little demons gonna hide inside she's gotta feed them


[Chorus]
D       A E    A
How was I I to know
D               A
That girl could take my heart
E              A
Everywhere she go
E
Everywhere, everywhere she go


[Instrumental]

e|------5-----5-----5--8-7-5--|------5-----5-----5--8-7-5--|------5-----5-----5--8-7-5--|
B|--5h8---5h8---5h8-----------|--5h8---5h8---5h8-----------|--5h8---5h8---5h8-----------|
G|----------------------------|----------------------------|----------------------------|
D|----------------------------|----------------------------|----------------------------|
A|----------------------------|----------------------------|----------------------------|
E|----------------------------|----------------------------|----------------------------|

e|---5---7---8---7---5--------|------5-----5-----5--8-7-5--|------5-----5-----5--8-7-5--|
B|-----------------------8----|--5h8---5h8---5h8-----------|--5h8---5h8---5h8-----------|
G|----------------------------|----------------------------|----------------------------|
D|----------------------------|----------------------------|----------------------------|
A|----------------------------|----------------------------|----------------------------|
E|----------------------------|----------------------------|----------------------------|

e|------5-----5-----5--8-7-5--|---5---7---8---7---5--------|
B|--5h8---5h8---5h8-----------|-----------------------8----|
G|----------------------------|----------------------------|
D|----------------------------|----------------------------|
A|----------------------------|----------------------------|
E|----------------------------|----------------------------|


[Verse]
A              D             E              D
Dope sick girl there she was in a Methadone clinic
A                     D               E               D
Drank a cup called it base coat swore not to get back in it


[Chorus]
D       A E    A
How was I I to know
D               A
That girl could take my heart
E              A
Everywhere she go


[Verse]
A                    D                 E        D
Dope sick girl gotta rig and a ride to New York City
A                    D                    E                 D
Gonna run away gonna watch it burn in the heart of New York City


[Chorus]
D       A E    A
How was I I to know
D               A
That girl could take my heart
E              A
Everywhere she go
E
Everywhere, everywhere she go


[Outro]

e|------5-----5-----5--8-7-5--|------5-----5-----5--8-7-5--|------5-----5-----5--8-7-5--|
B|--5h8---5h8---5h8-----------|--5h8---5h8---5h8-----------|--5h8---5h8---5h8-----------|
G|----------------------------|----------------------------|----------------------------|
D|----------------------------|----------------------------|----------------------------|
A|----------------------------|----------------------------|----------------------------|
E|----------------------------|----------------------------|----------------------------|

e|---5---7---8---7---5--------|--8--8--8--8---8--8--8--8---|----4/5--5-------4/5--5-----|
B|-----------------------8----|--8--8--8--8---8--8--8--8---|----4/5--5-------4/5--5-----|
G|----------------------------|----------------------------|----------------------------|
D|----------------------------|----------------------------|----------------------------|
A|----------------------------|----------------------------|----------------------------|
E|----------------------------|----------------------------|----------------------------|

e|--8--8--8--8---8--8--8--8---|--4---5---3----0---0---0----|--8b----8b----8b----8b--8b--|
B|--8--8--8--8---8--8--8--8---|--4---5---3----0---0---0----|--8b----8b----8b----8b--8b--|
G|----------------------------|----------------------------|----------------------------|
D|----------------------------|----------------------------|----------------------------|
A|----------------------------|----------------------------|----------------------------|
E|----------------------------|----------------------------|----------------------------|

e|-------5----5----5\---------|
B|-------5----5----5\---------|
G|----------------------------|
D|----------------------------|
A|----------------------------|
E|----------------------------|
      Dope   sick   girl!   

***********************************
| h   Hummer-on
| ~   Vibrato
| b   Bend
***********************************
Suggest correction
Give kudos to tab author, rate the tab!
1 2 3 4 5
comments
print report bad tab
guest
You may want to rate the tab now too:
select rating
Wanna post a correction for this tab? Suggest correction