Oops, an error
Loading. Please wait.

Dope Sick Girl Bass Tab

version 2
version 2

Whole song

Interactive

906 views 1 this week
no commentswrite comment
1 2 3 4 5
please rate
add to favorites
launch autoscroll
font size
0
reset
guitar tuner
Autoscroll
slow
fast
+/-
esc
set tempo
stop
Help us to improve Ultimate-Guitar.com Take our survey!
×
Contributor
pacu 1,963
- Rancid - Dope Sick Girl
- Tabbed by: Pacu, bassist from a brazilian punk rock banda called PunkAss.

__________
Intro I [2x]
G|------14------14------14-171614-|----|
D|-14h17---14h17---14h17----------|----|
A|--------------------------------|-3x-|
E|--------------------------------|----|

G|-1416171614---|----|
D|-----------17-|----|
A|--------------|-1x-|
E|--------------|----|

Intro II
G|--------------------------------------------|----|
D|-----------------3--------------------------|----|
A|-------3---555-35-5-----3---3--5-555-67-777-|-1x-|
E|-555-35-5------------535-535----------------|----|

G|----------------------------------------------------------|----|
D|--56-77665677665-----------3---------------------------56-|----|
A|-7--------------7-55443-345-5-----3---3--5-555-67-777-7---|-1x-|
E|-------------------------------535-535--------------------|----|

Part I
G|------------------------------------|----|
D|------------------------------------|----|
A|---------5---------------5-776644---|-2x-|
E|-555-53h5--0-03h5-0-005h7--------77-|----|

G|-------------------|----|
D|--4567654----------|----|
A|-5--------7545-457-|-2x-|
E|--------------5----|----|

G|------------------------------------|----|
D|------------------------------------|----|
A|---------5---------------5-776644---|-2x-|
E|-555-53h5--0-03h5-0-005h7--------77-|----|

G|-------------------|----|
D|--4567654----------|----|
A|-5--------7545-457-|-1x-|
E|--------------5----|----|

G|-------------------|----|
D|--4567654----------|----|
A|-5--------7545-456-|-1x-|
E|--------------5----|----|

G|------------|----|
D|------------|----|
A|-7~--7~--7~-|-1x-|
E|------------|----|

Intro II
Part I
Intro II

Ending
G|------------------------------|----|
D|-7-6-5------------------------|----|
A|-------7--7-5-4-5-7-5-4-5-----|-1x-|
E|--------------------------555-|----|
comments
We did not receive enough feedback on this tab! Please rate:
print report bad tab
1 2 3 4 5
I want to post or [tab]
guest
You may want to rate the tab now too:
select rating
Please do not post tabs as comments. Select "correction" instead!