Oops, an error
Loading. Please wait.

East Bay Night Bass Tab

version 1
version 1

Whole song

Interactive

5,333 views 1 this week
no commentswrite comment
1 2 3 4 5
please rate
add to favorites
launch autoscroll
font size
0
reset
guitar tuner
Tab Pro tools
  • play this tab
  • loop segment
  • change instrument
  • show fretboard
  • metronome
×
Best way to learn
"East Bay Night"
Autoscroll
slow
fast
+/-
esc
set tempo
stop
Contributor
Difficulty
intermediate
- Rancid - East Bay Night
- Tabbed by: Pacu, bassist from a brazilian punk rock band called PunkAss.
- I guess this tab is good but maybe you will find something wrong. So if you 
notice something wrong fix it. Hope it helps.
__________
Chorus 
G|-----------7-77-97---|----|
D|-------579--------97-|----|
A|-5-55-7--------------|-4x-|
E|---------------------|----|

Verse
G|-------------------------------------|----|
D|----------77777777-55555557----------|----|
A|-55555555-------------------55555555-|-3x-|
E|-------------------------------------|----|

Pre-chorus
G|-------------------|----|
D|-99999999-77777777-|----|
A|-------------------|-1x-|
E|-------------------|----|

Chorus 
G|-----------7-77-97---|----|
D|-------579--------97-|----|
A|-5-55-7--------------|-4x-|
E|---------------------|----|


Verse
G|-------------------------------------|----|
D|----------77777777-55555557----------|----|
A|-55555555-------------------55555555-|-3x-|
E|-------------------------------------|----|

Pre-chorus
G|-------------------|----|
D|-99999999-77777777-|----|
A|-------------------|-1x-|
E|-------------------|----|

Chorus 
G|-----------7-77-97---|----|
D|-------579--------97-|----|
A|-5-55-7--------------|-4x-|
E|---------------------|----|

Bridge
G|-----77991111111111111111111111119977-|----|
D|-9999---------------------------------|----|
A|--------------------------------------|-1x-|
E|--------------------------------------|----|

G|-14141414141414141212121414141616-191919191818181816161616141414-|----|
D|-----------------------------------------------------------------|----|
A|-----------------------------------------------------------------|-1x-|
E|-----------------------------------------------------------------|----|

G|-------------------91111111111111111999---------|----|
D|-999999991299129912--------------------12121211-|----|
A|------------------------------------------------|-1x-|
E|------------------------------------------------|----|

G|-----------------------------------------------------|----|
D|-----91111/121212-12-11-9-11-9--------------777555---|----|
A|-9h11--------------------------11-9-55555555------77-|-1x-|
E|-----------------------------------------------------|----|

Verse
G|-------------------------------------|----|
D|----------77777777-55555557----------|----|
A|-55555555-------------------55555555-|-3x-|
E|-------------------------------------|----|

Pre-chorus
G|-------------------|----|
D|-99999999-77777777-|----|
A|-------------------|-1x-|
E|-------------------|----|

Ending chorus 
G|-----------7-77-97---|----|
D|-------579--------97-|----|
A|-5-55-7--------------|-3x-|
E|---------------------|----|

G|-----------119----------|----|
D|-------579----119119----|----|
A|-5-55-7-------------119-|-1x-|
E|------------------------|----|

G|-----------7-77-97---|----|
D|-------579--------97-|----|
A|-5-55-7--------------|-3x-|
E|---------------------|----|

G|-----------9977--------|----|
D|-------579-----9977----|----|
A|-5-55-7-------------5/-|-1x-|
E|-----------------------|----|
comments
We did not receive enough feedback on this tab! Please rate:
print report bad tab
1 2 3 4 5
I want to post or [tab]
guest
You may want to rate the tab now too:
select rating
Please do not post tabs as comments. Select "correction" instead!