Oops, an error
Loading. Please wait.

East Bay Night tab

version 1
version 1

Whole song

Interactive

by Rancid
4,246 views 1 this week
no commentswrite comment
1 2 3 4 5
1 last vote to show rating
add to favorites
×
Save as Personal and add changes to this tab that will be seen only by you. Learn more ›
×
You can save this tab as Personal to edit and correct it or add notes. All changes will be seen only by you. Learn more »
launch autoscroll
font size
0
reset
how to read this tab
guitar tuner
edit
Autoscroll
slow
fast
+/-
esc
set tempo
stop
Author
Difficulty
#----------------------------------PLEASE NOTE---------------------------------#
#This file is the author's own work and represents their interpretation of the #
#song. You may only use this file for private study, scholarship, or research. #
#------------------------------------------------------------------------------#

EAST BAY NIGHT
As recorded by Rancid
(From the 2009 Album LET THE DOMINOES FALL)

Transcribed by Rey pizdavolk@gmail.com


Words and Music by Rancid

Gtr I (E A D G B E) - 'Clean'
Gtr II (E A D G B E) - 'Vocals'
Gtr III (E A D G B E) - 'Distortion'
Gtr IV (E A D G B E) - 'Distortion 2'

 Intro
  Q=200
  Bm              A
 4/4
  Gtr I
   W              W
|-^2------------|-0---------|
|-^3------------|-2---------|
|-^4------------|-2---------|
|-^0------------|-2---------|
|-^2------------|-0---------|
|---------------|-----------|
|
| Gtr II
|  Q  Q  E E Q    H    H
|---------------|-----------|
|---------------|-----------|
|---------------|-----------|
|-----4--4-4----|-2---------|
|---------------|------4----|
|---------------|-----------|


  D               G               D                 G
  Gtr III
  Q  Q  E E E E   H     E E E E    Q   Q  E E E E   H     E E E E
|-2--2--2-2-2-2-|-3-----3-3-3-3-|--2---2--2-2-2-2-|-3-----3-3-3-3--|
|-3--3--3-3-3-3-|-0-----0-0-0-0-|--3---3--3-3-3-3-|-0-----0-0-0-0--|
|-2--2--2-2-2-2-|-0-----0-0-0-0-|--2---2--2-2-2-2-|-0-----0-0-0-0--|
|-0--0--0-0-0-0-|-0-----0-0-0-0-|--0---0--0-0-0-0-|-0-----0-0-0-0--|
|---------------|-2-----2-2-2-2-|-----------------|-2-----2-2-2-2--|
|---------------|-3-----3-3-3-3-|-----------------|-3-----3-3-3-3--|
|
| W               H     Q   Q     +Q   Q  H         H     Q   Q
|---------------|---------------|-----------------|----------------|
|---------------|---------------|-----------------|----------------|
|---------------|---------------|-----------------|----------------|
|-0-------------|-------2---4---|-(4)--2--0-------|-------2---4----|
|---------------|---------------|-----------------|----------------|
|---------------|---------------|-----------------|----------------|
|
| Gtr IV
| Q  Q  E E E E   Q  Q  E E E E    Q   Q  E E E E   Q  Q  E E E E
|---------------|---------------|-----------------|----------------|
|---------------|---------------|-----------------|----------------|
|-7--7----------|---------------|--7---7----------|----------------|
|-7--7--7-7-7-7-|-5--5----------|--7---7--7-7-7-7-|-5--5-----------|
|-5--5--5-5-5-5-|-5--5--5-5-5-5-|--5---5--5-5-5-5-|-5--5--5-5-5-5--|
|---------------|-3--3--3-3-3-3-|-----------------|-3--3--3-3-3-3--|


  D               G               D               G
  Q  Q  E E E E   H     E E E E   Q  Q  E E E E   H      E E E E
|-2--2--2-2-2-2-|-3-----3-3-3-3-|-2--2--2-2-2-2-|-3------3-3-3-3--||
|-3--3--3-3-3-3-|-0-----0-0-0-0-|-3--3--3-3-3-3-|-0------0-0-0-0--||
|-2--2--2-2-2-2-|-0-----0-0-0-0-|-2--2--2-2-2-2-|-0------0-0-0-0--||
|-0--0--0-0-0-0-|-0-----0-0-0-0-|-0--0--0-0-0-0-|-0------0-0-0-0--||
|---------------|-2-----2-2-2-2-|---------------|-2------2-2-2-2--||
|---------------|-3-----3-3-3-3-|---------------|-3------3-3-3-3--||
|
| Q  Q  H         H     Q   Q     Q  Q  H         H.         E E
|---------------|---------------|---------------|-----------------||
|---------------|---------------|---------------|-----------------||
|---------------|---------------|---------------|-----------------||
|-4--2--0-------|-------2---4---|-4--2--0-------|------------2-4--||
|---------------|---------------|---------------|-----------------||
|---------------|---------------|---------------|-----------------||
|
| Q  Q  E E E E   Q  Q  E E E E   Q  Q  E E E E   Q   Q  E E E E
|---------------|---------------|---------------|-----------------||
|---------------|---------------|---------------|-----------------||
|-7--7----------|---------------|-7--7----------|-----------------||
|-7--7--7-7-7-7-|-5--5----------|-7--7--7-7-7-7-|-5---5-----------||
|-5--5--5-5-5-5-|-5--5--5-5-5-5-|-5--5--5-5-5-5-|-5---5--5-5-5-5--||
|---------------|-3--3--3-3-3-3-|---------------|-3---3--3-3-3-3--||


 Verse 1
  D                A                G                 D
  Q  Q   E E E E   Q  Q   E E E E   Q  Q   E E  E E   Q   Q   E E E E
|-2--2---2-2-2-2-|----------------|-----------------|-2---2---2-2-2-2--|
|-3--3---3-3-3-3-|----------------|-----------------|-3---3---3-3-3-3--|
|-2--2---2-2-2-2-|-2--2---2-2-2-2-|-----------------|-2---2---2-2-2-2--|
|-0--0---0-0-0-0-|-2--2---2-2-2-2-|-5--5---5-5--5-5-|-0---0---0-0-0-0--|
|----------------|-0--0---0-0-0-0-|-5--5---5-5--5-5-|------------------|
|----------------|----------------|-3--3---3-3--3-3-|------------------|
|
| Q  Q   Q   E E   Q  E E Q   E E   Q  E E E Q.       E H       E E E
|----------------|----------------|-----------------|------------------|
|----------------|----------------|-----------------|------------------|
|----------------|----------------|-----------------|------------------|
|-4--4---4---2-4-|-4--4-2-0---2-4-|-0--2-4-4-4------|-0-----------2-4--|
|----------------|----------------|-----------------|------------------|
|----------------|----------------|-----------------|------------------|
|
| PM----------------------------------------------------------------|
| Q  E E E E E E   Q  E E E E E E   Q  E E E E  E E   Q   E E E E E E
|----------------|----------------|-----------------|------------------|
|----------------|----------------|-----------------|------------------|
|-7--7-7-7-7-7-7-|-2--2-2-2-2-2-2-|-----------------|-7---7-7-7-7-7-7--|
|-7--7-7-7-7-7-7-|-2--2-2-2-2-2-2-|-5--5-5-5-5--5-5-|-7---7-7-7-7-7-7--|
|-5--5-5-5-5-5-5-|-0--0-0-0-0-0-0-|-5--5-5-5-5--5-5-|-5---5-5-5-5-5-5--|
|----------------|----------------|-3--3-3-3-3--3-3-|------------------|


  D                A                G                 D
  Q  Q   E E E E   Q  Q   E E E E   Q   Q   E E E E    Q   Q   E E E E
|-2--2---2-2-2-2-|----------------|-----------------|--2---2---2-2-2-2--|
|-3--3---3-3-3-3-|----------------|-----------------|--3---3---3-3-3-3--|
|-2--2---2-2-2-2-|-2--2---2-2-2-2-|-----------------|--2---2---2-2-2-2--|
|-0--0---0-0-0-0-|-2--2---2-2-2-2-|-5---5---5-5-5-5-|--0---0---0-0-0-0--|
|----------------|-0--0---0-0-0-0-|-5---5---5-5-5-5-|-------------------|
|----------------|----------------|-3---3---3-3-3-3-|-------------------|
|
| Q  Q   Q   E E   Q  Q   Q   E E   E E E E E Q   E   +H       Q   E E
|----------------|----------------|-----------------|-------------------|
|----------------|----------------|-----------------|-------------------|
|------------2-2-|-2--------------|-----------------|-------------------|
|-4--4---4-------|----4---2---2-4-|-2-4---0-0-2---4-|-(4)----------2-4--|
|----------------|----------------|-----------------|-------------------|
|----------------|----------------|-----------------|-------------------|
|
| PM-----------------------------------------------------------------|
| Q  E E E E E E   Q  E E E E E E   Q   E E E E E E    Q   E E E E E E
|----------------|----------------|-----------------|-------------------|
|----------------|----------------|-----------------|-------------------|
|-7--7-7-7-7-7-7-|-2--2-2-2-2-2-2-|-----------------|--7---7-7-7-7-7-7--|
|-7--7-7-7-7-7-7-|-2--2-2-2-2-2-2-|-5---5-5-5-5-5-5-|--7---7-7-7-7-7-7--|
|-5--5-5-5-5-5-5-|-0--0-0-0-0-0-0-|-5---5-5-5-5-5-5-|--5---5-5-5-5-5-5--|
|----------------|----------------|-3---3-3-3-3-3-3-|-------------------|


  D                A                G                D
  Q  Q   E E E E   Q  Q   E E E E   Q  Q   E E E E   Q  Q   E E E E
|-2--2---2-2-2-2-|----------------|----------------|-2--2---2-2-2-2--||
|-3--3---3-3-3-3-|----------------|----------------|-3--3---3-3-3-3--||
|-2--2---2-2-2-2-|-2--2---2-2-2-2-|----------------|-2--2---2-2-2-2--||
|-0--0---0-0-0-0-|-2--2---2-2-2-2-|-5--5---5-5-5-5-|-0--0---0-0-0-0--||
|----------------|-0--0---0-0-0-0-|-5--5---5-5-5-5-|-----------------||
|----------------|----------------|-3--3---3-3-3-3-|-----------------||
|
| Q  Q   Q   E E   Q  Q   Q   E E   Q  E E Q   Q     H      H
|----------------|----------------|----------------|-----------------||
|----------------|----------------|----------------|-----------------||
|----------------|----------------|----------------|-----------------||
|-4--4---4---2-4-|-4--2---0---2-4-|-0--0-0-0---2---|-4---------------||
|----------------|----------------|----------------|-----------------||
|----------------|----------------|----------------|-----------------||
|
| PM--------------------------------------------------------------|
| Q  E E E E E E   Q  E E E E E E   Q  E E E E E E   Q  E E E E E E
|----------------|----------------|----------------|-----------------||
|----------------|----------------|----------------|-----------------||
|-7--7-7-7-7-7-7-|-2--2-2-2-2-2-2-|----------------|-7--7-7-7-7-7-7--||
|-7--7-7-7-7-7-7-|-2--2-2-2-2-2-2-|-5--5-5-5-5-5-5-|-7--7-7-7-7-7-7--||
|-5--5-5-5-5-5-5-|-0--0-0-0-0-0-0-|-5--5-5-5-5-5-5-|-5--5-5-5-5-5-5--||
|----------------|----------------|-3--3-3-3-3-3-3-|-----------------||


 Chorus
  Bm              A
   W              W
|-^2------------|-0---------|
|-^3------------|-2---------|
|-^4------------|-2---------|
|-^0------------|-2---------|
|-^2------------|-0---------|
|---------------|-----------|
|
|  Q  Q  E E Q    H    H
|---------------|-----------|
|---------------|-----------|
|---------------|-----------|
|-----4--4-4----|-2---------|
|---------------|------4----|
|---------------|-----------|
|
|  W              W
|---------------|-----------|
|---------------|-----------|
|--4------------|-2---------|
|--4------------|-2---------|
|--2------------|-0---------|
|---------------|-----------|


  D               G               D                 G
  Q  Q  E E E E   H     E E E E    Q   Q  E E E E   H     E E E E
|-2--2--2-2-2-2-|-3-----3-3-3-3-|--2---2--2-2-2-2-|-3-----3-3-3-3--|
|-3--3--3-3-3-3-|-0-----0-0-0-0-|--3---3--3-3-3-3-|-0-----0-0-0-0--|
|-2--2--2-2-2-2-|-0-----0-0-0-0-|--2---2--2-2-2-2-|-0-----0-0-0-0--|
|-0--0--0-0-0-0-|-0-----0-0-0-0-|--0---0--0-0-0-0-|-0-----0-0-0-0--|
|---------------|-2-----2-2-2-2-|-----------------|-2-----2-2-2-2--|
|---------------|-3-----3-3-3-3-|-----------------|-3-----3-3-3-3--|
|
| W               H     Q   Q     +Q   Q  H         H     Q   Q
|---------------|---------------|-----------------|----------------|
|---------------|---------------|-----------------|----------------|
|---------------|---------------|-----------------|----------------|
|-0-------------|-------2---4---|-(4)--2--0-------|-------2---4----|
|---------------|---------------|-----------------|----------------|
|---------------|---------------|-----------------|----------------|
|
| Q  Q  E E E E   Q  Q  E E E E    Q   Q  E E E E   Q  Q  E E E E
|---------------|---------------|-----------------|----------------|
|---------------|---------------|-----------------|----------------|
|-7--7----------|---------------|--7---7----------|----------------|
|-7--7--7-7-7-7-|-5--5----------|--7---7--7-7-7-7-|-5--5-----------|
|-5--5--5-5-5-5-|-5--5--5-5-5-5-|--5---5--5-5-5-5-|-5--5--5-5-5-5--|
|---------------|-3--3--3-3-3-3-|-----------------|-3--3--3-3-3-3--|


  D               G               D               G
  Q  Q  E E E E   H     E E E E   Q  Q  E E E E   H      E E E E
|-2--2--2-2-2-2-|-3-----3-3-3-3-|-2--2--2-2-2-2-|-3------3-3-3-3--||
|-3--3--3-3-3-3-|-0-----0-0-0-0-|-3--3--3-3-3-3-|-0------0-0-0-0--||
|-2--2--2-2-2-2-|-0-----0-0-0-0-|-2--2--2-2-2-2-|-0------0-0-0-0--||
|-0--0--0-0-0-0-|-0-----0-0-0-0-|-0--0--0-0-0-0-|-0------0-0-0-0--||
|---------------|-2-----2-2-2-2-|---------------|-2------2-2-2-2--||
|---------------|-3-----3-3-3-3-|---------------|-3------3-3-3-3--||
|
| Q  Q  H         H     Q   Q     Q  Q  H         H.         E E
|---------------|---------------|---------------|-----------------||
|---------------|---------------|---------------|-----------------||
|---------------|---------------|---------------|-----------------||
|-4--2--0-------|-------2---4---|-4--2--0-------|------------2-4--||
|---------------|---------------|---------------|-----------------||
|---------------|---------------|---------------|-----------------||
|
| Q  Q  E E E E   Q  Q  E E E E   Q  Q  E E E E   Q   Q  E E E E
|---------------|---------------|---------------|-----------------||
|---------------|---------------|---------------|-----------------||
|-7--7----------|---------------|-7--7----------|-----------------||
|-7--7--7-7-7-7-|-5--5----------|-7--7--7-7-7-7-|-5---5-----------||
|-5--5--5-5-5-5-|-5--5--5-5-5-5-|-5--5--5-5-5-5-|-5---5--5-5-5-5--||
|---------------|-3--3--3-3-3-3-|---------------|-3---3--3-3-3-3--||


 Verse 2
  D                A                G                 D
  Q  Q   E E E E   Q  Q   E E E E   Q  Q   E E  E E   Q   Q   E E E E
|-2--2---2-2-2-2-|----------------|-----------------|-2---2---2-2-2-2--|
|-3--3---3-3-3-3-|----------------|-----------------|-3---3---3-3-3-3--|
|-2--2---2-2-2-2-|-2--2---2-2-2-2-|-----------------|-2---2---2-2-2-2--|
|-0--0---0-0-0-0-|-2--2---2-2-2-2-|-5--5---5-5--5-5-|-0---0---0-0-0-0--|
|----------------|-0--0---0-0-0-0-|-5--5---5-5--5-5-|------------------|
|----------------|----------------|-3--3---3-3--3-3-|------------------|
|
| Q  Q   Q   E E   Q  E E Q   E E   Q  E E E Q.       E H       E E E
|----------------|----------------|-----------------|------------------|
|----------------|----------------|-----------------|------------------|
|----------------|----------------|-----------------|------------------|
|-4--4---4---2-4-|-4--4-2-0---2-4-|-0--2-4-4-4------|-0-----------2-4--|
|----------------|----------------|-----------------|------------------|
|----------------|----------------|-----------------|------------------|
|
| PM----------------------------------------------------------------|
| Q  E E E E E E   Q  E E E E E E   Q  E E E E  E E   Q   E E E E E E
|----------------|----------------|-----------------|------------------|
|----------------|----------------|-----------------|------------------|
|-7--7-7-7-7-7-7-|-2--2-2-2-2-2-2-|-----------------|-7---7-7-7-7-7-7--|
|-7--7-7-7-7-7-7-|-2--2-2-2-2-2-2-|-5--5-5-5-5--5-5-|-7---7-7-7-7-7-7--|
|-5--5-5-5-5-5-5-|-0--0-0-0-0-0-0-|-5--5-5-5-5--5-5-|-5---5-5-5-5-5-5--|
|----------------|----------------|-3--3-3-3-3--3-3-|------------------|


  D                A                G                 D
  Q  Q   E E E E   Q  Q   E E E E   Q   Q   E E E E    Q   Q   E E E E
|-2--2---2-2-2-2-|----------------|-----------------|--2---2---2-2-2-2--|
|-3--3---3-3-3-3-|----------------|-----------------|--3---3---3-3-3-3--|
|-2--2---2-2-2-2-|-2--2---2-2-2-2-|-----------------|--2---2---2-2-2-2--|
|-0--0---0-0-0-0-|-2--2---2-2-2-2-|-5---5---5-5-5-5-|--0---0---0-0-0-0--|
|----------------|-0--0---0-0-0-0-|-5---5---5-5-5-5-|-------------------|
|----------------|----------------|-3---3---3-3-3-3-|-------------------|
|
| Q  Q   Q   E E   Q  Q   Q   E E   E E E E E Q   E   +H       Q   E E
|----------------|----------------|-----------------|-------------------|
|----------------|----------------|-----------------|-------------------|
|------------2-2-|-2--------------|-----------------|-------------------|
|-4--4---4-------|----4---2---2-4-|-2-4---0-0-2---4-|-(4)----------2-4--|
|----------------|----------------|-----------------|-------------------|
|----------------|----------------|-----------------|-------------------|
|
| PM-----------------------------------------------------------------|
| Q  E E E E E E   Q  E E E E E E   Q   E E E E E E    Q   E E E E E E
|----------------|----------------|-----------------|-------------------|
|----------------|----------------|-----------------|-------------------|
|-7--7-7-7-7-7-7-|-2--2-2-2-2-2-2-|-----------------|--7---7-7-7-7-7-7--|
|-7--7-7-7-7-7-7-|-2--2-2-2-2-2-2-|-5---5-5-5-5-5-5-|--7---7-7-7-7-7-7--|
|-5--5-5-5-5-5-5-|-0--0-0-0-0-0-0-|-5---5-5-5-5-5-5-|--5---5-5-5-5-5-5--|
|----------------|----------------|-3---3-3-3-3-3-3-|-------------------|


  D                A                G                D
  Q  Q   E E E E   Q  Q   E E E E   Q  Q   E E E E   Q  Q   E E E E
|-2--2---2-2-2-2-|----------------|----------------|-2--2---2-2-2-2--||
|-3--3---3-3-3-3-|----------------|----------------|-3--3---3-3-3-3--||
|-2--2---2-2-2-2-|-2--2---2-2-2-2-|----------------|-2--2---2-2-2-2--||
|-0--0---0-0-0-0-|-2--2---2-2-2-2-|-5--5---5-5-5-5-|-0--0---0-0-0-0--||
|----------------|-0--0---0-0-0-0-|-5--5---5-5-5-5-|-----------------||
|----------------|----------------|-3--3---3-3-3-3-|-----------------||
|
| Q  Q   Q   E E   Q  Q   Q   E E   Q  E E Q   Q     H      H
|----------------|----------------|----------------|-----------------||
|----------------|----------------|----------------|-----------------||
|----------------|----------------|----------------|-----------------||
|-4--4---4---2-4-|-4--2---0---2-4-|-0--0-0-0---2---|-4---------------||
|----------------|----------------|----------------|-----------------||
|----------------|----------------|----------------|-----------------||
|
| PM--------------------------------------------------------------|
| Q  E E E E E E   Q  E E E E E E   Q  E E E E E E   Q  E E E E E E
|----------------|----------------|----------------|-----------------||
|----------------|----------------|----------------|-----------------||
|-7--7-7-7-7-7-7-|-2--2-2-2-2-2-2-|----------------|-7--7-7-7-7-7-7--||
|-7--7-7-7-7-7-7-|-2--2-2-2-2-2-2-|-5--5-5-5-5-5-5-|-7--7-7-7-7-7-7--||
|-5--5-5-5-5-5-5-|-0--0-0-0-0-0-0-|-5--5-5-5-5-5-5-|-5--5-5-5-5-5-5--||
|----------------|----------------|-3--3-3-3-3-3-3-|-----------------||


 Chorus
  Bm              A
   W              W
|-^2------------|-0---------|
|-^3------------|-2---------|
|-^4------------|-2---------|
|-^0------------|-2---------|
|-^2------------|-0---------|
|---------------|-----------|
|
|  Q  Q  E E Q    H    H
|---------------|-----------|
|---------------|-----------|
|---------------|-----------|
|-----4--4-4----|-2---------|
|---------------|------4----|
|---------------|-----------|
|
|  W              W
|---------------|-----------|
|---------------|-----------|
|--4------------|-2---------|
|--4------------|-2---------|
|--2------------|-0---------|
|---------------|-----------|


  D               G               D                 G
  Q  Q  E E E E   H     E E E E    Q   Q  E E E E   H     E E E E
|-2--2--2-2-2-2-|-3-----3-3-3-3-|--2---2--2-2-2-2-|-3-----3-3-3-3--|
|-3--3--3-3-3-3-|-0-----0-0-0-0-|--3---3--3-3-3-3-|-0-----0-0-0-0--|
|-2--2--2-2-2-2-|-0-----0-0-0-0-|--2---2--2-2-2-2-|-0-----0-0-0-0--|
|-0--0--0-0-0-0-|-0-----0-0-0-0-|--0---0--0-0-0-0-|-0-----0-0-0-0--|
|---------------|-2-----2-2-2-2-|-----------------|-2-----2-2-2-2--|
|---------------|-3-----3-3-3-3-|-----------------|-3-----3-3-3-3--|
|
| W               H     Q   Q     +Q   Q  H         H     Q   Q
|---------------|---------------|-----------------|----------------|
|---------------|---------------|-----------------|----------------|
|---------------|---------------|-----------------|----------------|
|-0-------------|-------2---4---|-(4)--2--0-------|-------2---4----|
|---------------|---------------|-----------------|----------------|
|---------------|---------------|-----------------|----------------|
|
| Q  Q  E E E E   Q  Q  E E E E    Q   Q  E E E E   Q  Q  E E E E
|---------------|---------------|-----------------|----------------|
|---------------|---------------|-----------------|----------------|
|-7--7----------|---------------|--7---7----------|----------------|
|-7--7--7-7-7-7-|-5--5----------|--7---7--7-7-7-7-|-5--5-----------|
|-5--5--5-5-5-5-|-5--5--5-5-5-5-|--5---5--5-5-5-5-|-5--5--5-5-5-5--|
|---------------|-3--3--3-3-3-3-|-----------------|-3--3--3-3-3-3--|


  D               G               D               G
  Q  Q  E E E E   H     E E E E   Q  Q  E E E E   H      E E E E
|-2--2--2-2-2-2-|-3-----3-3-3-3-|-2--2--2-2-2-2-|-3------3-3-3-3--||
|-3--3--3-3-3-3-|-0-----0-0-0-0-|-3--3--3-3-3-3-|-0------0-0-0-0--||
|-2--2--2-2-2-2-|-0-----0-0-0-0-|-2--2--2-2-2-2-|-0------0-0-0-0--||
|-0--0--0-0-0-0-|-0-----0-0-0-0-|-0--0--0-0-0-0-|-0------0-0-0-0--||
|---------------|-2-----2-2-2-2-|---------------|-2------2-2-2-2--||
|---------------|-3-----3-3-3-3-|---------------|-3------3-3-3-3--||
|
| Q  Q  H         H     Q   Q     Q  Q  H         H.         E E
|---------------|---------------|---------------|-----------------||
|---------------|---------------|---------------|-----------------||
|---------------|---------------|---------------|-----------------||
|-4--2--0-------|-------2---4---|-4--2--0-------|------------2-4--||
|---------------|---------------|---------------|-----------------||
|---------------|---------------|---------------|-----------------||
|
| Q  Q  E E E E   Q  Q  E E E E   Q  Q  E E E E   Q   Q  E E E E
|---------------|---------------|---------------|-----------------||
|---------------|---------------|---------------|-----------------||
|-7--7----------|---------------|-7--7----------|-----------------||
|-7--7--7-7-7-7-|-5--5----------|-7--7--7-7-7-7-|-5---5-----------||
|-5--5--5-5-5-5-|-5--5--5-5-5-5-|-5--5--5-5-5-5-|-5---5--5-5-5-5--||
|---------------|-3--3--3-3-3-3-|---------------|-3---3--3-3-3-3--||


 Bass Solo
  Bm                                    F#
  W                 +H.           Q     W                 +H.           Q
|-2---------------|-(2)-----------2---|-2---------------|-(2)-----------2----|
|-3---------------|-(3)-----------3---|-2---------------|-(2)-----------2----|
|-4---------------|-(4)-----------4---|-3---------------|-(3)-----------3----|
|-0---------------|-(0)-----------0---|-4---------------|-(4)-----------4----|
|-2---------------|-(2)-----------2---|-4---------------|-(4)-----------4----|
|-----------------|-------------------|-2---------------|-(2)-----------2----|
|
| Gtr IV
| E E E E E E E E    E  E E E E E E E   E E E E E E E E    E  E E E E E E E
|-----------------|-------------------|-----------------|--------------------|
|-----------------|-------------------|-----------------|--------------------|
|-4-4-4-4-4-4-4-4-|--4--4-4-4-4-4-4-4-|-----------------|--------------------|
|-4-4-4-4-4-4-4-4-|--4--4-4-4-4-4-4-4-|-4-4-4-4-4-4-4-4-|--4--4-4-4-4-4-4-4--|
|-2-2-2-2-2-2-2-2-|--2--2-2-2-2-2-2-2-|-4-4-4-4-4-4-4-4-|--4--4-4-4-4-4-4-4--|
|-----------------|-------------------|-2-2-2-2-2-2-2-2-|--2--2-2-2-2-2-2-2--|


  G                                     D                 A
  W                 +H.           Q     W                 W
|-3---------------|-(3)-----------3---|-2---------------|-0----------------|
|-0---------------|-(0)-----------0---|-3---------------|-2----------------|
|-0---------------|-(0)-----------0---|-2---------------|-2----------------|
|-0---------------|-(0)-----------0---|-0---------------|-2----------------|
|-2---------------|-(2)-----------2---|-----------------|-0----------------|
|-3---------------|-(3)-----------3---|-----------------|------------------|
|
| E E E E E E E E    E  E E E E E E E   E E E E E E E E   E E E E E E E E
|-----------------|-------------------|-----------------|------------------|
|-----------------|-------------------|-----------------|------------------|
|-----------------|-------------------|-7-7-7-7-7-7-7-7-|------------------|
|-5-5-5-5-5-5-5-5-|--5--5-5-5-5-5-5-5-|-7-7-7-7-7-7-7-7-|-7-7-7-7-7-7-7-7--|
|-5-5-5-5-5-5-5-5-|--5--5-5-5-5-5-5-5-|-5-5-5-5-5-5-5-5-|-7-7-7-7-7-7-7-7--|
|-3-3-3-3-3-3-3-3-|--3--3-3-3-3-3-3-3-|-----------------|-5-5-5-5-5-5-5-5--|


  Bm                                    F#
  W                 +H.           Q     W                 +H.           Q
|-2---------------|-(2)-----------2---|-2---------------|-(2)-----------2----|
|-3---------------|-(3)-----------3---|-2---------------|-(2)-----------2----|
|-4---------------|-(4)-----------4---|-3---------------|-(3)-----------3----|
|-0---------------|-(0)-----------0---|-4---------------|-(4)-----------4----|
|-2---------------|-(2)-----------2---|-4---------------|-(4)-----------4----|
|-----------------|-------------------|-2---------------|-(2)-----------2----|
|
| E E E E E E E E    E  E E E E E E E   E E E E E E E E    E  E E E E E E E
|-----------------|-------------------|-----------------|--------------------|
|-----------------|-------------------|-----------------|--------------------|
|-4-4-4-4-4-4-4-4-|--4--4-4-4-4-4-4-4-|-----------------|--------------------|
|-4-4-4-4-4-4-4-4-|--4--4-4-4-4-4-4-4-|-4-4-4-4-4-4-4-4-|--4--4-4-4-4-4-4-4--|
|-2-2-2-2-2-2-2-2-|--2--2-2-2-2-2-2-2-|-4-4-4-4-4-4-4-4-|--4--4-4-4-4-4-4-4--|
|-----------------|-------------------|-2-2-2-2-2-2-2-2-|--2--2-2-2-2-2-2-2--|


  G                                     D                 A
  W                 +H.           Q     W                 W
|-3---------------|-(3)-----------3---|-2---------------|-0----------------||
|-0---------------|-(0)-----------0---|-3---------------|-2----------------||
|-0---------------|-(0)-----------0---|-2---------------|-2----------------||
|-0---------------|-(0)-----------0---|-0---------------|-2----------------||
|-2---------------|-(2)-----------2---|-----------------|-0----------------||
|-3---------------|-(3)-----------3---|-----------------|------------------||
|
| E E E E E E E E    E  E E E E E E E   E E E E E E E E   E E E E E E E E
|-----------------|-------------------|-----------------|------------------||
|-----------------|-------------------|-----------------|------------------||
|-----------------|-------------------|-7-7-7-7-7-7-7-7-|------------------||
|-5-5-5-5-5-5-5-5-|--5--5-5-5-5-5-5-5-|-7-7-7-7-7-7-7-7-|-7-7-7-7-7-7-7-7--||
|-5-5-5-5-5-5-5-5-|--5--5-5-5-5-5-5-5-|-5-5-5-5-5-5-5-5-|-7-7-7-7-7-7-7-7--||
|-3-3-3-3-3-3-3-3-|--3--3-3-3-3-3-3-3-|-----------------|-5-5-5-5-5-5-5-5--||


 Verse 3
  D                A                G                 D
  Q  Q   E E E E   Q  Q   E E E E   Q  Q   E E  E E   Q   Q   E E E E
|-2--2---2-2-2-2-|----------------|-----------------|-2---2---2-2-2-2--|
|-3--3---3-3-3-3-|----------------|-----------------|-3---3---3-3-3-3--|
|-2--2---2-2-2-2-|-2--2---2-2-2-2-|-----------------|-2---2---2-2-2-2--|
|-0--0---0-0-0-0-|-2--2---2-2-2-2-|-5--5---5-5--5-5-|-0---0---0-0-0-0--|
|----------------|-0--0---0-0-0-0-|-5--5---5-5--5-5-|------------------|
|----------------|----------------|-3--3---3-3--3-3-|------------------|
|
| Gtr II
| Q  Q   Q   E E   Q  E E Q   E E   Q  E E E Q.       E H       E E E
|----------------|----------------|-----------------|------------------|
|----------------|----------------|-----------------|------------------|
|----------------|----------------|-----------------|------------------|
|-4--4---4---2-4-|-4--4-2-0---2-4-|-0--2-4-4-4------|-0-----------2-4--|
|----------------|----------------|-----------------|------------------|
|----------------|----------------|-----------------|------------------|
|
| Gtr IV
| PM----------------------------------------------------------------|
| Q  E E E E E E   Q  E E E E E E   Q  E E E E  E E   Q   E E E E E E
|----------------|----------------|-----------------|------------------|
|----------------|----------------|-----------------|------------------|
|-7--7-7-7-7-7-7-|-2--2-2-2-2-2-2-|-----------------|-7---7-7-7-7-7-7--|
|-7--7-7-7-7-7-7-|-2--2-2-2-2-2-2-|-5--5-5-5-5--5-5-|-7---7-7-7-7-7-7--|
|-5--5-5-5-5-5-5-|-0--0-0-0-0-0-0-|-5--5-5-5-5--5-5-|-5---5-5-5-5-5-5--|
|----------------|----------------|-3--3-3-3-3--3-3-|------------------|


  D                A                G                 D
  Q  Q   E E E E   Q  Q   E E E E   Q   Q   E E E E    Q   Q   E E E E
|-2--2---2-2-2-2-|----------------|-----------------|--2---2---2-2-2-2--|
|-3--3---3-3-3-3-|----------------|-----------------|--3---3---3-3-3-3--|
|-2--2---2-2-2-2-|-2--2---2-2-2-2-|-----------------|--2---2---2-2-2-2--|
|-0--0---0-0-0-0-|-2--2---2-2-2-2-|-5---5---5-5-5-5-|--0---0---0-0-0-0--|
|----------------|-0--0---0-0-0-0-|-5---5---5-5-5-5-|-------------------|
|----------------|----------------|-3---3---3-3-3-3-|-------------------|
|
| Q  Q   Q   E E   Q  Q   Q   E E   E E E E E Q   E   +H       Q   E E
|----------------|----------------|-----------------|-------------------|
|----------------|----------------|-----------------|-------------------|
|------------2-2-|-2--------------|-----------------|-------------------|
|-4--4---4-------|----4---2---2-4-|-2-4---0-0-2---4-|-(4)----------2-4--|
|----------------|----------------|-----------------|-------------------|
|----------------|----------------|-----------------|-------------------|
|
| PM-----------------------------------------------------------------|
| Q  E E E E E E   Q  E E E E E E   Q   E E E E E E    Q   E E E E E E
|----------------|----------------|-----------------|-------------------|
|----------------|----------------|-----------------|-------------------|
|-7--7-7-7-7-7-7-|-2--2-2-2-2-2-2-|-----------------|--7---7-7-7-7-7-7--|
|-7--7-7-7-7-7-7-|-2--2-2-2-2-2-2-|-5---5-5-5-5-5-5-|--7---7-7-7-7-7-7--|
|-5--5-5-5-5-5-5-|-0--0-0-0-0-0-0-|-5---5-5-5-5-5-5-|--5---5-5-5-5-5-5--|
|----------------|----------------|-3---3-3-3-3-3-3-|-------------------|


  D                A                G                D
  Q  Q   E E E E   Q  Q   E E E E   Q  Q   E E E E   Q  Q   E E E E
|-2--2---2-2-2-2-|----------------|----------------|-2--2---2-2-2-2--||
|-3--3---3-3-3-3-|----------------|----------------|-3--3---3-3-3-3--||
|-2--2---2-2-2-2-|-2--2---2-2-2-2-|----------------|-2--2---2-2-2-2--||
|-0--0---0-0-0-0-|-2--2---2-2-2-2-|-5--5---5-5-5-5-|-0--0---0-0-0-0--||
|----------------|-0--0---0-0-0-0-|-5--5---5-5-5-5-|-----------------||
|----------------|----------------|-3--3---3-3-3-3-|-----------------||
|
| Q  Q   Q   E E   Q  Q   Q   E E   Q  E E Q   Q     H      H
|----------------|----------------|----------------|-----------------||
|----------------|----------------|----------------|-----------------||
|----------------|----------------|----------------|-----------------||
|-4--4---4---2-4-|-4--2---0---2-4-|-0--0-0-0---2---|-4---------------||
|----------------|----------------|----------------|-----------------||
|----------------|----------------|----------------|-----------------||
|
| PM--------------------------------------------------------------|
| Q  E E E E E E   Q  E E E E E E   Q  E E E E E E   Q  E E E E E E
|----------------|----------------|----------------|-----------------||
|----------------|----------------|----------------|-----------------||
|-7--7-7-7-7-7-7-|-2--2-2-2-2-2-2-|----------------|-7--7-7-7-7-7-7--||
|-7--7-7-7-7-7-7-|-2--2-2-2-2-2-2-|-5--5-5-5-5-5-5-|-7--7-7-7-7-7-7--||
|-5--5-5-5-5-5-5-|-0--0-0-0-0-0-0-|-5--5-5-5-5-5-5-|-5--5-5-5-5-5-5--||
|----------------|----------------|-3--3-3-3-3-3-3-|-----------------||


 Chorus
   W              W
|-^2------------|-0---------|
|-^3------------|-2---------|
|-^4------------|-2---------|
|-^0------------|-2---------|
|-^2------------|-0---------|
|---------------|-----------|
|
|  Q  Q  E E Q    H    H
|---------------|-----------|
|---------------|-----------|
|---------------|-----------|
|-----4--4-4----|-2---------|
|---------------|------4----|
|---------------|-----------|
|
|  W              W
|---------------|-----------|
|---------------|-----------|
|--4------------|-2---------|
|--4------------|-2---------|
|--2------------|-0---------|
|---------------|-----------|


  D               G               D                 G
  Q  Q  E E E E   H     E E E E    Q   Q  E E E E   H     E E E E
|-2--2--2-2-2-2-|-3-----3-3-3-3-|--2---2--2-2-2-2-|-3-----3-3-3-3--|
|-3--3--3-3-3-3-|-0-----0-0-0-0-|--3---3--3-3-3-3-|-0-----0-0-0-0--|
|-2--2--2-2-2-2-|-0-----0-0-0-0-|--2---2--2-2-2-2-|-0-----0-0-0-0--|
|-0--0--0-0-0-0-|-0-----0-0-0-0-|--0---0--0-0-0-0-|-0-----0-0-0-0--|
|---------------|-2-----2-2-2-2-|-----------------|-2-----2-2-2-2--|
|---------------|-3-----3-3-3-3-|-----------------|-3-----3-3-3-3--|
|
| W               H     Q   Q     +Q   Q  H         H     Q   Q
|---------------|---------------|-----------------|----------------|
|---------------|---------------|-----------------|----------------|
|---------------|---------------|-----------------|----------------|
|-0-------------|-------2---4---|-(4)--2--0-------|-------2---4----|
|---------------|---------------|-----------------|----------------|
|---------------|---------------|-----------------|----------------|
|
| Q  Q  E E E E   Q  Q  E E E E    Q   Q  E E E E   Q  Q  E E E E
|---------------|---------------|-----------------|----------------|
|---------------|---------------|-----------------|----------------|
|-7--7----------|---------------|--7---7----------|----------------|
|-7--7--7-7-7-7-|-5--5----------|--7---7--7-7-7-7-|-5--5-----------|
|-5--5--5-5-5-5-|-5--5--5-5-5-5-|--5---5--5-5-5-5-|-5--5--5-5-5-5--|
|---------------|-3--3--3-3-3-3-|-----------------|-3--3--3-3-3-3--|


  D               G               D
  Q  Q  E E E E   H     E E E E   Q  Q  E E E E
|-2--2--2-2-2-2-|-3-----3-3-3-3-|-2--2--2-2-2-2-||
|-3--3--3-3-3-3-|-0-----0-0-0-0-|-3--3--3-3-3-3-||
|-2--2--2-2-2-2-|-0-----0-0-0-0-|-2--2--2-2-2-2-||
|-0--0--0-0-0-0-|-0-----0-0-0-0-|-0--0--0-0-0-0-||
|---------------|-2-----2-2-2-2-|---------------||
|---------------|-3-----3-3-3-3-|---------------||
|
| Q  Q  H         H     Q   Q     Q  Q  H
|---------------|---------------|---------------||
|---------------|---------------|---------------||
|---------------|---------------|---------------||
|-4--2--0-------|-------2---4---|-4--2--0-------||
|---------------|---------------|---------------||
|---------------|---------------|---------------||
|
| Q  Q  E E E E   Q  Q  E E E E   Q  Q  E E E E
|---------------|---------------|---------------||
|---------------|---------------|---------------||
|-7--7----------|---------------|-7--7----------||
|-7--7--7-7-7-7-|-5--5----------|-7--7--7-7-7-7-||
|-5--5--5-5-5-5-|-5--5--5-5-5-5-|-5--5--5-5-5-5-||
|---------------|-3--3--3-3-3-3-|---------------||


 Outro
  G              D               G                D
  H    E E E E   Q  Q  E E E E    H     E E E E   Q  Q  E E E E
|-3----3-3-3-3-|-2--2--2-2-2-2-|--3-----3-3-3-3-|-2--2--2-2-2-2--|
|-0----0-0-0-0-|-3--3--3-3-3-3-|--0-----0-0-0-0-|-3--3--3-3-3-3--|
|-0----0-0-0-0-|-2--2--2-2-2-2-|--0-----0-0-0-0-|-2--2--2-2-2-2--|
|-0----0-0-0-0-|-0--0--0-0-0-0-|--0-----0-0-0-0-|-0--0--0-0-0-0--|
|-2----2-2-2-2-|---------------|--2-----2-2-2-2-|----------------|
|-3----3-3-3-3-|---------------|--3-----3-3-3-3-|----------------|
|
| Gtr IV
|                ~~~~~~~~~~~~~~~~~~~~             ~
| H    E E E E   W               +H     E E E E   W
|--------------|---------------|----------------|----------------|
|--------------|---------------|----------------|----------------|
|----------7-9-|-7-------------|-(7)--------7-9-|-7--------------|
|------7-9-----|---------------|--------7-9-----|----------------|
|--------------|---------------|----------------|----------------|
|--------------|---------------|----------------|----------------|


  G              D               G                D
  H    E E E E   Q  Q  E E E E    H     E E E E   W
|-3----3-3-3-3-|-2--2--2-2-2-2-|--3-----3-3-3-3-|-2----*|
|-0----0-0-0-0-|-3--3--3-3-3-3-|--0-----0-0-0-0-|-3----*|
|-0----0-0-0-0-|-2--2--2-2-2-2-|--0-----0-0-0-0-|-2----*|
|-0----0-0-0-0-|-0--0--0-0-0-0-|--0-----0-0-0-0-|-0----*|
|-2----2-2-2-2-|---------------|--2-----2-2-2-2-|------*|
|-3----3-3-3-3-|---------------|--3-----3-3-3-3-|------*|
|
|                ~~~~~~~~~~~~~~~~~~~~             ~
| H    E E E E   W               +H     E E E E   W
|--------------|---------------|----------------|------*|
|--------------|---------------|----------------|------*|
|----------7-9-|-7-------------|-(7)--------7-9-|-7----*|
|------7-9-----|---------------|--------7-9-----|------*|
|--------------|---------------|----------------|------*|
|--------------|---------------|----------------|------*|

Duration Legend
---------------
W - whole; H - half; Q - quarter; E - 8th; S - 16th; T - 32nd; X - 64th; a - acciaccatura
+ - note tied to previous; . - note dotted; .. - note double dotted
Uncapitalized letters represent notes that are staccato (1/2 duration)
Irregular groupings are notated above the duration line
Duration letters will always appear directly above the note/fret number it represents the
duration for.  Duration letters with no fret number below them represent rests.  Multi-
bar rests are notated in the form Wxn, where n is the number of bars to rest for.  Low
melody durations appear below the staff

Tablature Legend
----------------
 h   - hammer-on
 p   - pull-off
 b   - bend
 pb  - pre-bend
 r   - bend release (if no number after the r, then release immediately)
 /\  - slide into or out of (from/to "nowhere")
 s   - legato slide
 S   - shift slide
 - natural harmonic
[n]  - artificial harmonic
n(n) - tapped harmonic
 ~   - vibrato
 tr  - trill
 T   - tap
 TP  - trem. picking
 PM  - palm muting
\n/  - tremolo bar dip; n = amount to dip
 \n  - tremolo bar down
 n/  - tremolo bar up
/n\  - tremolo bar inverted dip
 =   - hold bend; also acts as connecting device for hammers/pulls
 <> - volume swell (louder/softer)
 x   - on rhythm slash represents muted slash
 o   - on rhythm slash represents single note slash

Misc Legend
-----------
 |  - bar
||  - double bar
||o - repeat start
o|| - repeat end
*|  - double bar (ending)
 :  - bar (freetime)
 $  - Segno
 &  - Coda
Tempo markers -  = BPM(8/16=s8/s16), where s8 = swing 8ths, s16 = swing 16ths

            
            
Suggest correction
Creating personal tab
Creating personal tab
You can edit any tab online and save it as your Personal.

You can edit, replace or remove any tab part or add personal notes – all changes will be seen only by you.

Personal tabs can be accessed anytime from any device, even offline.
Learn more »
Give kudos to tab author, rate the tab!
1 2 3 4 5
comments
print report bad tab
guest
You may want to rate the tab now too:
select rating
Wanna post a correction for this tab? Suggest correction