Oops, an error
Loading. Please wait.

East Bay Night Bass Tab

version 2
version 2

Whole song

Interactive

1,272 views 6 this week
no commentswrite comment
1 2 3 4 5
excellent!
x 1
add to favorites
launch autoscroll
font size
0
reset
guitar tuner
Tab Pro tools
  • play this tab
  • loop segment
  • change instrument
  • show fretboard
  • metronome
Autoscroll
slow
fast
+/-
esc
set tempo
stop
Contributor
Difficulty
intermediate
#----------------------------------PLEASE NOTE---------------------------------#
#This file is the author's own work and represents their interpretation of the #
#song. You may only use this file for private study, scholarship, or research. #
#------------------------------------------------------------------------------#

EAST BAY NIGHT (Bassline)
As recorded by Rancid
(From the 2009 Album LET THE DOMINOES FALL)

Transcribed by Rey pizdavolk@gmail.com


Words and Music by Rancid

Gtr I (E A D G) - 'Bass'

 Intro
  Q=200
 4/4
  Gtr I
  Wx2          Q  E E E E E E   Q  E E E E E E
|------------|----------0-----|-7--7-7-7-9-----|
|------------|------------7-9-|------------7-9-|
|------------|-5--5-5-7-------|----------------|
|------------|----------------|----------------|


  Q  E E E E E E   Q  E E E E E E
|----------0-----|-7--7-7-7-9------|
|------------7-9-|------------7-9--|
|-5--5-5-7-------|-----------------|
|----------------|-----------------|


  Q  E E E E E E   Q  E E E E E E   Q  E E E E E E   Q  E E E E E E
|----------0-----|-7--7-7-7-9-----|----------0-----|-7--7-7-7-9------||
|------------7-9-|------------7-9-|------------7-9-|------------7-9--||
|-5--5-5-7-------|----------------|-5--5-5-7-------|-----------------||
|----------------|----------------|----------------|-----------------||


 Verse 1
  E E E E E E E E   E E E E E E E E   E E E E E E E E   E E E E E E E E
|-----------------|-----------------|-----------------|------------------|
|-----------------|-7-7-7-7-7-7-7-7-|-5-5-5-5-5-5-5-7-|------------------|
|-5-5-5-5-5-5-5-5-|-----------------|-----------------|-5-5-5-5-5-5-5-5--|
|-----------------|-----------------|-----------------|------------------|


  E E E E E E E E   E E E E E E E E   E E E E E E E E   E E E E E E E E
|-----------------|-----------------|-----------------|------------------|
|-----------------|-7-7-7-7-7-7-7-7-|-5-5-5-5-5-5-5-7-|------------------|
|-5-5-5-5-5-5-5-7-|-----------------|-----------------|-5-5-5-5-5-5-5-5--|
|-----------------|-----------------|-----------------|------------------|


  E E E E E E E E   E E E E E E E E   E E E E E E E E   E E E E E E E E
|-----------------|-----------------|-----------------|------------------||
|-----------------|-7-7-7-7-7-7-7-7-|-5-5-5-5-5-5-5-7-|------------------||
|-5-5-5-5-5-5-5-5-|-----------------|-----------------|-5-5-5-5-5-5-5-5--||
|-----------------|-----------------|-----------------|------------------||


 Chorus
  Q  E E E E E E   Q  E E E E E E   Q  E E E E E E
|----------------|----------------|----------0-----|
|-9--9-9-9-9-9-9-|-7--7-7-7-7-7-7-|------------7-9-|
|----------------|----------------|-5--5-5-7-------|
|----------------|----------------|----------------|


  Q  E E E E E E   Q  E E E E E E
|-7--7-7-7-9-----|----------0-7-9---|
|------------7-9-|------------------|
|----------------|-5--5-5-7---------|
|----------------|------------------|


  Q  E E E E E E   Q  E E E E E E   Q  E E E E E E
|-7--7-7-7-9-----|----------0-7-9-|-7--7-7-7-9-----|
|------------7-9-|----------------|------------7-9-|
|----------------|-5--5-5-7-------|----------------|
|----------------|----------------|----------------|


  Q  E E E E E E   Q  E E E E E E
|----------0-7-9-|-7--7-7-7-9-------||
|----------------|------------7-9---||
|-5--5-5-7-------|------------------||
|----------------|------------------||


 Verse 2
  E E E E E E E E   E E E E E E E E   E E E E E E E E   E E E E E E E E
|-----------------|-----------------|-----------------|------------------|
|-----------------|-7-7-7-7-7-7-7-7-|-5-5-5-5-5-5-5-7-|------------------|
|-5-5-5-5-5-5-5-5-|-----------------|-----------------|-5-5-5-5-5-5-5-5--|
|-----------------|-----------------|-----------------|------------------|


  E E E E E E E E   E E E E E E E E   E E E E E E E E   E E E E E E E E
|-----------------|-----------------|-----------------|------------------|
|-----------------|-7-7-7-7-7-7-7-7-|-5-5-5-5-5-5-5-7-|------------------|
|-5-5-5-5-5-5-5-7-|-----------------|-----------------|-5-5-5-5-5-5-5-5--|
|-----------------|-----------------|-----------------|------------------|


  E E E E E E E E   E E E E E E E E   E E E E E E E E   E E E E E E E E
|-----------------|-----------------|-----------------|------------------||
|-----------------|-7-7-7-7-7-7-7-7-|-5-5-5-5-5-5-5-7-|------------------||
|-5-5-5-5-5-5-5-5-|-----------------|-----------------|-5-5-5-5-5-5-5-5--||
|-----------------|-----------------|-----------------|------------------||


 Chorus
  Q  E E E E E E   Q  E E E E E E   Q  E E E E E E
|----------------|----------------|----------0-----|
|-9--9-9-9-9-9-9-|-7--7-7-7-7-7-7-|------------7-9-|
|----------------|----------------|-5--5-5-7-------|
|----------------|----------------|----------------|


  Q  E E E E E E   Q  E E E E E E
|-7--7-7-7-9-----|----------0-7-9---|
|------------7-9-|------------------|
|----------------|-5--5-5-7---------|
|----------------|------------------|


  Q  E E E E E E   Q  E E E E E E   Q  E E E E E E
|-7--7-7-7-9-----|----------0-7-9-|-7--7-7-7-9-----|
|------------7-9-|----------------|------------7-9-|
|----------------|-5--5-5-7-------|----------------|
|----------------|----------------|----------------|


  Q  E E E E E E   Q  E E E E E E
|----------0-7-9-|-7--7-7-7-9-------||
|----------------|------------7-9---||
|-5--5-5-7-------|------------------||
|----------------|------------------||


 Bass Solo
  E E E E E E E E    E  E  E  E  E  E  Q
|---------7-7-9-9-|-11-11-11-11-11-11-12--|
|-9-9-9-9---------|-----------------------|
|-----------------|-----------------------|
|-----------------|-----------------------|


   E  E  E  E  E  E  E  E    E  E  E  Q   E  Q
|-11-11-11-11-11-11-11-11-|-11-11-11-11--11-12---|
|-------------------------|----------------------|
|-------------------------|----------------------|
|-------------------------|----------------------|


   E  E  E  E  Q   E  E    E  E  E  Q   E  Q
|-14-14-14-14-14--14-14-|-12-12-12-14--14S16--|
|-----------------------|---------------------|
|-----------------------|---------------------|
|-----------------------|---------------------|


   Q   Q   Q   E  E    E  E  E  Q   E  E  E
|-19--19--18--18-18-|-16-16-16-14--14-14-14--|
|-------------------|------------------------|
|-------------------|------------------------|
|-------------------|------------------------|


  E E E E E E Q     Q.   Q  E  E E    E  E  E  E  E  E  E E    Q  Q  E Q  E
|----------------|---------------9-|-11-11-11-11-11-11-11-9-|-11--9--9-9--9--|
|-9-9-9-9-9-9-9--|-12----9--9-12---|------------------------|----------------|
|----------------|-----------------|------------------------|----------------|
|----------------|-----------------|------------------------|----------------|


  Q   Q   Q   E  E    E  E Q   Q  Q    E E E E E E E E   E E E E E E E E
|------------------|-----------------|-----------------|------------------||
|-9--11--12--12-12-|-12-11-9--11--9--|-----4-4-5-5-7-7-|-7-7-5-5-4-4------||
|------------------|-----------------|-5-5-------------|-------------7-7--||
|------------------|-----------------|-----------------|------------------||


 Verse 3
  E E E E E E E E   E E E E E E E E   E E E E E E E E   E E E E E E E E
|-----------------|-----------------|-----------------|------------------|
|-----------------|-7-7-7-7-7-7-7-7-|-5-5-5-5-5-5-5-7-|------------------|
|-5-5-5-5-5-5-5-5-|-----------------|-----------------|-5-5-5-5-5-5-5-5--|
|-----------------|-----------------|-----------------|------------------|


  E E E E E E E E   E E E E E E E E   E E E E E E E E   E E E E E E E E
|-----------------|-----------------|-----------------|------------------|
|-----------------|-7-7-7-7-7-7-7-7-|-5-5-5-5-5-5-5-7-|------------------|
|-5-5-5-5-5-5-5-7-|-----------------|-----------------|-5-5-5-5-5-5-5-5--|
|-----------------|-----------------|-----------------|------------------|


  E E E E E E E E   E E E E E E E E   E E E E E E E E   E E E E E E E E
|-----------------|-----------------|-----------------|------------------||
|-----------------|-7-7-7-7-7-7-7-7-|-5-5-5-5-5-5-5-7-|------------------||
|-5-5-5-5-5-5-5-5-|-----------------|-----------------|-5-5-5-5-5-5-5-5--||
|-----------------|-----------------|-----------------|------------------||


 Chorus
  Q  E E E E E E   Q  E E E E E E   Q  E E E E E E
|----------------|----------------|----------0-----|
|-9--9-9-9-9-9-9-|-7--7-7-7-7-7-7-|------------7-9-|
|----------------|----------------|-5--5-5-7-------|
|----------------|----------------|----------------|


  Q  E E E E E E   Q  E E E E E E
|-7--7-7-7-9-----|----------0-7-9---|
|------------7-9-|------------------|
|----------------|-5--5-5-7---------|
|----------------|------------------|


  Q  E E E E E E   Q  E E E E E E   Q  E E E E E E   Q  E E E E E E
|-7--7-7-7-9-----|----------0-7-9-|-7--7-7-7-9-----|----------0-7-9--||
|------------7-9-|----------------|------------7-9-|-----------------||
|----------------|-5--5-5-7-------|----------------|-5--5-5-7--------||
|----------------|----------------|----------------|-----------------||


 Outro
   E  E E E E E  E  E   Q  E E E E E E   Q  E E E E E E   Q  E E E E E E
|-11-11-9-9-7-7-------|----------0-7-9-|-7--7-7-7-9-----|----------0-7-9--|
|---------------11-11-|----------------|------------7-9-|-----------------|
|---------------------|-5--5-5-7-------|----------------|-5--5-5-7--------|
|---------------------|----------------|----------------|-----------------|


  Q  E E E E E E   Q  E E E E E E   Q  E E E E E E   W
|-7--7-7-7-9-----|----------0-7-9-|-7--7-7-7-9-----|-7----*|
|------------7-9-|----------------|------------7-9-|------*|
|----------------|-5--5-5-7-------|----------------|------*|
|----------------|----------------|----------------|------*|

Duration Legend
---------------
W - whole; H - half; Q - quarter; E - 8th; S - 16th; T - 32nd; X - 64th; a - acciaccatura
+ - note tied to previous; . - note dotted; .. - note double dotted
Uncapitalized letters represent notes that are staccato (1/2 duration)
Irregular groupings are notated above the duration line
Duration letters will always appear directly above the note/fret number it represents the
duration for.  Duration letters with no fret number below them represent rests.  Multi-
bar rests are notated in the form Wxn, where n is the number of bars to rest for.  Low
melody durations appear below the staff

Tablature Legend
----------------
 h   - hammer-on
 p   - pull-off
 b   - bend
 pb  - pre-bend
 r   - bend release (if no number after the r, then release immediately)
 /\  - slide into or out of (from/to "nowhere")
 s   - legato slide
 S   - shift slide
 - natural harmonic
[n]  - artificial harmonic
n(n) - tapped harmonic
 ~   - vibrato
 tr  - trill
 T   - tap
 TP  - trem. picking
 PM  - palm muting
\n/  - tremolo bar dip; n = amount to dip
 \n  - tremolo bar down
 n/  - tremolo bar up
/n\  - tremolo bar inverted dip
 =   - hold bend; also acts as connecting device for hammers/pulls
 <> - volume swell (louder/softer)
 x   - on rhythm slash represents muted slash
 o   - on rhythm slash represents single note slash

Misc Legend
-----------
 |  - bar
||  - double bar
||o - repeat start
o|| - repeat end
*|  - double bar (ending)
 :  - bar (freetime)
 $  - Segno
 &  - Coda
Tempo markers -  = BPM(8/16=s8/s16), where s8 = swing 8ths, s16 = swing 16ths
comments
We did not receive enough feedback on this tab! Please rate:
print report bad tab
1 2 3 4 5
I want to post or [tab]
guest
You may want to rate the tab now too:
select rating
Please do not post tabs as comments. Select "correction" instead!