Oops, an error
Loading. Please wait.

Evils My Friend bass

by Rancid
862 views 9 this week
2 commentsread comments
1 2 3 4 5
2 more votes to show rating
add to favorites
×
Save as Personal and add changes to this tab that will be seen only by you. Learn more ›
×
You can save this tab as Personal to edit and correct it or add notes. All changes will be seen only by you. Learn more »
launch autoscroll
font size
0
reset
guitar tuner
edit
Autoscroll
slow
fast
+/-
esc
set tempo
stop
Author
Difficulty
-------------------------------------------------------------------------------
                             Evil's My Friend - Rancid
-------------------------------------------------------------------------------
Tabbed by: Kevin Bredall
E-mail: kbredall14@gmail.com

Hello this is my first tab ever in this format! 
Hope to start transcribing more and more ska punk bass lines
for everyone to enjoy and learn from!

You can find my play along video on Youtube at:
https://youtu.be/JLEXt9dziVY


Tune Tips: 
-This song is mostly finger playing specifically with one finger.
I personally prefer the Middle , but either your pointer finger or middle will be fine 
play around to find your preference. 

-Only time I alternate pluck is when playing the octaves in the verses and the organ bridge. 
Yes that means the faster passages are slightly tricky but it can be done and it sounds very consistent!



Tuning:
A
Intro and Chorus's
G|------------------------------------------------5----6---------------------|
D|---------------------------------------------------------------------------|
A|---5--0--5--4--3--2--0---------------------2--3----4-----------------------|
E|------------------------3---1--0--1--2--3----------------------------------|
  B
  Verses
G|---------------------------------------------------------------------------|
D|--------------3-3-3-4-5-5-5-10--12--12--10--10-------7-7-7-----------------|
A|--5--5--3--3------------------------------------8-10-------10-8-7----------|
E|---------------------------------------------------------------------------|
  C
  Bridge "Organ Solo part"
G|-------------------------------------7---7---7--5--------------------------|
D|-----------------------------7-7-7-7---7---7-------7-----------------------|
A|--8--8-----8--8--8--8-7---5------------------------------------------------|
E|--------8------------------------------------------------------------------|

G|---------------------------------------------------------------------------|
D|-6--6-----6--6--6--6-5-----------------------------------------------------|
A|-------6-------------------8--11-11-11-11-11-11-10-10-10-10-8-8-8-8--------|
E|---------------------------------------------------------------------------|

G|-------------------------------------7---7---7--5--------------------------|
D|-----------------------------7-7-7-7---7---7-------7-----------------------|
A|--8--8-----8--8--8--8-7---5------------------------------------------------|
E|--------8------------------------------------------------------------------|

G|---------------------------------------------------------------------------|
D|-6--6-----6--6--6--6-5-----------------------------------------------------|
A|-------6-------------------8-----------------------------------------------|
E|---------------------------------------------------------------------------|

Song Format:
A
B
A
B
C
A1(no bass)
A w/ Bass




| /  slide up
| \  slide down
| h  hammer-on
| p  pull-off
| ~  vibrato
| +  harmonic
| x  Mute note
===============================================================================

            
            
Suggest correction
Creating personal tab
Creating personal tab
You can edit any tab online and save it as your Personal.

You can edit, replace or remove any tab part or add personal notes – all changes will be seen only by you.

Personal tabs can be accessed anytime from any device, even offline.
Learn more »
Give kudos to tab author, rate the tab!
1 2 3 4 5
comments
print report bad tab
2 comments total.
0 reply
maliq_05 10 May 09, 2016 12:01 AM

THE INTERRUPTERS - FAMILY PLEASE....

guest
You may want to rate the tab now too:
select rating
Wanna post a correction for this tab? Suggest correction