Oops, an error
Loading. Please wait.

Fall Back Down Bass Tab

version 1
version 1

Whole song

Interactive

14,039 views 6 this week
7 commentsread comments
1 2 3 4 5
x 6
add to favorites
launch autoscroll
font size
0
reset
guitar tuner
×
Best way to learn
"Fall Back Down"
Autoscroll
slow
fast
+/-
esc
set tempo
stop
This is a good Rancid Song and its a kinda challenging intro. For this song,
the bassist for Rancid uses a pick as usual, so you can use your fingers, but
I recomend a pick for this song.

* = Hammer on

Intro
------------------------------
------2*1*2---3--4------2-----
--0-2---------------0---------
------------------------------


Verse 
--------------------------------------------------------
-----2*1*2222222244444444444444------------22222222-----
--0*2--------------------------000000000000-------------
--------------------------------------------------------

Pre Chorus
---4444222211112222444422221111-------
-------------------------------4444---
--------------------------------------
--------------------------------------


Chorus
-------------------------------------------------------
----22222222222344444444444444-------------22222222222--
-----------------------------0000000000000-------------
-------------------------------------------------------

Pre 1st Solo
-------------------------------4444444444444422446611------
----------------222222222222222----------------------4444--
---4444444444444-------------------------------------------
-----------------------------------------------------------

1st Solo= Repeat Verse 

2nd Solo- Repeat Pre 1st Solo

2nd Chorus
-------------------------
--22---44------22--------
-----------00------------
-------------------------

For the rest of the song just play Verse !
If i screw this up a little im sorry and dont kill me!
Suggest correction
comments
print report bad tab
7 comments total. Showing first comments.
0 reply
jon rizzy 70 Aug 21, 2003 08:00 PM

g|-----------------------------------|
d|----2--2-3-4---2-------------------|
a|-2-4--4------0---------------------|
e|-----------------------------------|

Intro jon rizzi

0 reply
Treyko 320 Sep 06, 2003 08:00 PM

if whoever looked at these tabs excepted mine u would see sumthin totally different but accurate good job man rookies can play the song now

0 reply
KevinHallX 10 Sep 28, 2003 08:00 PM

i\'m sorry but you really shouldn\'t be telling people it\'s ok to play bass with a pick. it\'s like telling violinists it\'s ok to play with their fingers. only in punk and death do people play with picks because those styles of music are so lyrically centered that nobody really cares all that much about the instruments sounding a little crappy.

guest
You may want to rate the tab now too:
select rating
Wanna post a correction for this tab? Suggest correction