Oops, an error
Loading. Please wait.

Fall Back Down Bass Tab

version 1
version 1

Intro

Whole song

Interactive

4,604 views 1 this week
6 commentsread comments
1 2 3 4 5
x 5
add to favorites
launch autoscroll
font size
0
reset
guitar tuner
Autoscroll
slow
fast
+/-
esc
set tempo
stop
Help us to improve Ultimate-Guitar.com Take our survey!
×
Intro
-------------------------------|
-------------------------------|
---------7-----7--8--9-9-0-0-7-|
---7--9------9-----------------|

Here is the intro, it sounds much better the the other tabs on here

-------------------------------|
-------------------------------|
---------7-----7--8--9-9-0-0-7-|
---7--9------9-----------------|
-------------------------------|
-------------------------------|
---------7-----7--8--9-9-0-0-7-|
---7--9------9-----------------|
-------------------------------|
-------------------------------|
---------7-----7--8--9-9-0-0-7-|
---7--9------9-----------------|
Suggest correction
comments
print report bad tab
6 comments total. Showing first comments.
0 reply
bass 6playa9 30 Jun 30, 2004 12:00 AM

dude i dont even listen to rancid and i think it sounds awesome!

check out some of my stuff when i get it

bass6playa9

0 reply
bassist90 50 Oct 14, 2004 12:00 AM

hey, good tab, but the intro actually goes something like this:

G|------------------------
D|------------------------
A|----7--7~-8-9~--0~--7~--
E|--79-9------------------

0 reply
bassist90 50 Oct 14, 2004 12:00 AM

hey, good tab, but the intro actually goes something like this:

G|------------------------
D|------------------------
A|----7--7~-8-9~--0~--7~--
E|--79-9------------------

guest
You may want to rate the tab now too:
select rating
Wanna post a correction for this tab? Suggest correction