Oops, an error
Loading. Please wait.

Fall Back Down tab

version 1
version 1

Whole song

Interactive

by Rancid
24,936 views 42 this week
2 commentsread comments
1 2 3 4 5
x 12
add to favorites
×
Save as Personal and add changes to this tab that will be seen only by you. Learn more ›
×
You can save this tab as Personal to edit and correct it or add notes. All changes will be seen only by you. Learn more »
launch autoscroll
font size
0
reset
how to read this tab
guitar tuner
edit
Autoscroll
slow
fast
+/-
esc
set tempo
stop
Band:  Rancid
Song:  Fall Back Down
Album: Indestructible

Tabbed by: Matt L. - ilikepunkrock26@yahoo.com

Tuning: Standard E

This is a pretty simple song except for the little solo things.


Intro/Verse A:
---7-----9-----5-----7--------------------------------------------
---9-----10----5-----9--------------------------------------------
---9-----11----6-----9--------------------------------------------
---9-----11----7-----9--------------------------------------------
---7-----9-----7-----7--------------------------------------------
---------------5--------------------------------------------------
   E     f#Min A     E
        
Bridge Chord: B Major
--------7--------
--------7--------
--------8--------
--------9--------
--------9--------
--------7--------


Chorus:
------------------------------------------------------------------
------------------------------------------------------------------
---9---11---------------------------------------------------------
---9---11--7------------------------------------------------------
---7---9---7------------------------------------------------------
-----------5------------------------------------------------------
[Same as verse but played in power chords]


Verse B:
---9-----7-----7-----5--------------------------------------------
---9-----9-----7-----5--------------------------------------------
---9-----9-----8-----6--------------------------------------------
---11----9-----9-----7--------------------------------------------
---11----7-----9-----7--------------------------------------------
---9-----------7-----5--------------------------------------------
   C#Min E     B     A

Solo 1: (Play Verse A On Rythym Guitar)
Note: These are the chords, not the rythym.
It's not that hard to figure out though.
------------------------------------------------------------------
--9-10-9-10-9-10-9---9-10-12-10-12-10-9---------------------------
--9-11-9-11-9-11-9---9-11-13-11-13-11-9---------------------------
------------------------------------------------------------------
------------------------------------------------------------------
------------------------------------------------------------------

------------------------------------------------------------------
--14-12-10-12-10-9---14-12-10-9---9-10-9-10-12-10-9---------------
--14-13-11-13-11-9---14-13-11-9---9-11-9-11-13-11-9---------------
------------------------------------------------------------------
------------------------------------------------------------------
------------------------------------------------------------------

Verse 2:
---7-----9-----5-----7--------------------------------------------
---9-----10----5-----9--------------------------------------------
---9-----11----6-----9--------------------------------------------
---9-----11----7-----9--------------------------------------------
---7-----9-----7-----7--------------------------------------------
---------------5--------------------------------------------------
   E     f#Min A     E

Chorus:
------------------------------------------------------------------
------------------------------------------------------------------
---9---11---------------------------------------------------------
---9---11--7------------------------------------------------------
---7---9---7------------------------------------------------------
-----------5------------------------------------------------------

Solo 2: (Play Verse B On Rythym Guitar)
Note: Play Twice.
------------------------------------------------------------------
------------------------------------------------------------------
------------------------------------------------------------------
------------------------------------------------------------------
---7p6-7p6-7-/9\7-6-7-/9\7---7-7\6-6---6-6\4----------------------
------------------------------------------------------------------


Chorus:
------------------------------------------------------------------
------------------------------------------------------------------
---9---11---------------------------------------------------------
---9---11--7------------------------------------------------------
---7---9---7------------------------------------------------------
-----------5------------------------------------------------------


Solo 3: (Play Verse A On Rythym Guitar)
Note: These are the chords, not the rythym.
------------------------------------------------------------------
---12-10-9--12-10-9--10-9-10-9-10-12-10-9--10-9-10-13-10-9-10-9---
---13-11-9--13-11-9--11-9-11-9-11-13-11-9--11-9-11-12-11-9-11-9---
------------------------------------------------------------------
------------------------------------------------------------------
------------------------------------------------------------------

            
            
Suggest correction
Creating personal tab
Creating personal tab
You can edit any tab online and save it as your Personal.

You can edit, replace or remove any tab part or add personal notes – all changes will be seen only by you.

Personal tabs can be accessed anytime from any device, even offline.
Learn more »
comments
print report bad tab
2 comments total.
0 reply
iheartdorks1 10 Jul 18, 2003 08:00 PM

I love this song! From what I can see, nice job :)

0 reply
rancidnofxgf182 110 Sep 14, 2003 08:00 PM

Artist: Rancid
Song: Fall Back Down
Album: Indestructible
Guitarists: Tim Armstrong and Lars Fredricksen
Tabbed: September 14th, 2003
Tabber: Stephan Cwynar

I can't say that this tab is 100%, but it is damn near it and it sounds good. So here it goes.

KEY: ~-let ring h-hammer on p-pull off
Guitar 1-Tim
Guitar 2-Lars

Intro (Guitar 1-clean w/ reverb)

e----------------------------------
B-9-------10------14-------9-------
G-9-------11------14-------9-------
D-9-------11------14-------9-------
A-7--------9------12-------7-------
E----------------------------------

Verse (Guitar 2-distortion)

e----------------------------------
B-9---------------10---------------
G-9---------------11---------------
D-9---------------11---------------
A-7----------------9---------------
E----------------------------------

e----------------------------------
B-14---------------9---------------
G-14---------------9---------------
D-14---------------9---------------
A-12---------------7---------------
E----------------------------------

e----------------------------------
B-9---------------10---------------
G-9---------------11---------------
D-9---------------11---------------
A-7----------------9---------------
E----------------------------------

e----------------------------------
B-14-------------------------------
G-14---------------444444444444444-
D-14---------------444444444444444-
A-12---------------222222222222222-
E----------------------------------

e-----------------
B-----------------
G-444444444444444-
D-444444444444444-
A-222222222222222-
E-----------------
This is what guitar 2 plays during the verse.

Verse (Guitar 1-distortion)*second part only!

e-0---------------2----------------
B-0---------------2----------------
G-1---------------2----------------
D-2---------------4----------------
A-2---------------4----------------
E-0---------------2----------------

e-0--------------------------------
B-2--------------------------------
G-2----------------444444444444444-
D-2----------------444444444444444-
A-0----------------222222222222222-
E----------------------------------

e-----------------
B-----------------
G-444444444444444-
D-444444444444444-
A-222222222222222-
E-----------------
As you can tell, guitar 1 plays this only the second time.

Chorus Guitars 1 and 2
e-000000-222222-000000-0000000-
B-000000-222222-222222-0000000-
G-111111-222222-222222-1111111-
D-222222-444444-222222-2222222- x4
A-222222-444444-000000-2222222-
E-000000-222222--------0000000-

Interlude Guitar 1

e-444444444444444-000000000000000--
B-555555555555555-000000000000000--
G-666666666666666-111111111111111--
D-666666666666666-222222222222222--
A-444444444444444-222222222222222--
E-----------------000000000000000--
x2
e----------------------------------
B----------------------------------
G-444444444444444-222222222222222--
D-444444444444444-222222222222222--
A-222222222222222-000000000000000--
E----------------------------------

Interlude (Guitar 2-distortion)

e----------------------------------
B----------------------------------
G-666666666666666-999999999999999--
D-666666666666666-999999999999999--
A-444444444444444-777777777777777--
E----------------------------------
x2
e----------------------------------
B----------------------------------
G-444444444444444-222222222222222--
D-444444444444444-222222222222222--
A-222222222222222-000000000000000--
E----------------------------------

Tim's Solo (Guitar 1-clean)

e----------------------------------
B-9999-10--9999-10--9999-10--9~----
G-9999-11--9999-11--9999-11--9~----
D----------------------------------
A----------------------------------
E----------------------------------

e---------------------------------------------
B-9999-10/-12121212-10/-12--------12-10-10-99-
G-9999-11/-13131313-11/-13--------13-11-11-99-
D---------------------------------------------
A---------------------------------------------
E---------------------------------------------

e----------------------------------------
B-14-12-10/12-12-10109--14-12-101010-999-
G-14-13-11/13-13-11119--14-13-111111-999-
D----------------------------------------
A----------------------------------------
E----------------------------------------

e---------------------------------------
B-9999-10--9999-10/-12121212-10-10-9999-
G-9999-11--9999-11/-13131313-11-11-9999-
D---------------------------------------
A---------------------------------------
E---------------------------------------

(First measure of second verse)

e----------------------------------
B-99~------------------------------
G-99~------------------------------
D----------------------------------
A----------------------------------
E----------------------------------

Guitar 2 plays this under tim's solo

e-0000000-2222222-0000000-00000000-
B-0000000-2222222-2222222-00000000-
G-1111111-2222222-2222222-11111111-
D-2222222-4444444-2222222-22222222- x4
A-2222222-4444444-0000000-22222222-
E-0000000-2222222---------00000000-

verse and chorus...and then...

Guitar 1 plays this under lar's solo

e----------------------------------
B----------------------------------
G-666666666666666-999999999999999--
D-666666666666666-999999999999999--
A-444444444444444-777777777777777--
E----------------------------------
x2
e----------------------------------
B----------------------------------
G-444444444444444-222222222222222--
D-444444444444444-222222222222222--
A-222222222222222-000000000000000--
E----------------------------------

Lars' solo Guitar 2

Starts at very end of chorus
e----------------------------------
B----------------------------------
G----------------------------------
D----------------------------------
A-7p6h7p6h7~--9-7-6-7~--9-777p6~---
E----------------------------------

e----------------------------------
B----------------------------------
G----------------------------------
D----------------------------------
A-6666p4~--------------------------
E----------------------------------

e----------------------------------
B----------------------------------
G----------------------------------
D----------------------------------
A-7p6h7p6h7~--9-7-6-7~--9-777p6~---
E----------------------------------

e----------------------------------
B----------------------------------
G----------------------------------
D----------------------------------
A-6666p4~--------------------------
E----------------------------------

Last chorus (Guitars 1 and 2-distortion)

e-0-0-----2-2-----0-0-----0-0------
B-0-0-----2-2-----2-2-----0-0------
G-1-1-----2-2-----2-2-----1-1------
D-2-2-----4-4-----2-2-----2-2------
A-2-2-----4-4-----0-0-----2-2------
E-0-0-----2-2-------------0-0------

e-0-0-----2-2-----0-0-----0-0------
B-0-0-----2-2-----2-2-----0-0------
G-1-1-----2-2-----2-2-----1-1------
D-2-2-----4-4-----2-2-----2-2------
A-2-2-----4-4-----0-0-----2-2------
E-0-0-----2-2-------------0-0------

e-000000-222222-000000-0000000-
B-000000-222222-222222-0000000-
G-111111-222222-222222-1111111-
D-222222-444444-222222-2222222- x6
A-222222-444444-000000-2222222-
E-000000-222222--------0000000-

Outro (Guitar 1-clean)

e---------------------------------------------
B---12121212121212/10101010101010/9999999-----
G---13131313131313/11111111111111/9999999-----
D---------------------------------------------
A---------------------------------------------
E---------------------------------------------

e---------------------------------------------
B-1212121212121212/10101010101010/9999999-----
G-1313131313131313/11111111111111/9999999-----
D---------------------------------------------
A---------------------------------------------
E---------------------------------------------

e-----------------------------------------------
B-1010101010-999-1010101010-999-10-12-10-1010-9-
G-1111111111-999-1111111111-999-11-13-10-1010-9-
D-----------------------------------------------
A-----------------------------------------------
E-----------------------------------------------

e-------------------------------------------------
B-1010101010-999-1010101010101010-14-12-1010-9999-
G-1111111111-999-1111111111111111-14-13-1010-9999-
D-------------------------------------------------
A------------------------------------------------
E------------------------------------------------

Outro Guitar 2

e-0000000-2222222-0000000-00000000-
B-0000000-2222222-2222222-00000000-
G-1111111-2222222-2222222-11111111-
D-2222222-4444444-2222222-22222222- x4
A-2222222-4444444-0000000-22222222-
E-0000000-2222222---------00000000-

Ending Guitar 1

e----------------------------------
B-9~-------------------------------
G-9~-------------------------------
D----------------------------------
A----------------------------------
E----------------------------------

Ending (Guitar 2-distortion)

e-0~-------------------------------
B-0~-------------------------------
G-1~-------------------------------
D-2~-------------------------------
A-2~-------------------------------
E-0~-------------------------------

Well thats it. Simple song hey. Any comments, e-mail me at Stephanc88@hotmail.com. So long and rate if you wish.

guest
Wanna post a correction for this tab? Suggest correction