Oops, an error
Loading. Please wait.

Fall Back Down Bass

version 3
version 3

Whole song

Interactive

693 views 1 this week
no commentswrite comment
1 2 3 4 5
3 more votes to show rating
add to favorites
launch autoscroll
font size
0
reset
guitar tuner
×
Best way to learn
"Fall Back Down"
Autoscroll
slow
fast
+/-
esc
set tempo
stop
Author
- Rancid - Fall Back Down
- Tabbed by: Pacu, bassist from a brazilian punk rock banda called PunkAss.

__________
Intro
G|-------------------|----|
D|-------------------|----|
A|----7-7~-89~-0~-7~-|-1x-|
E|-7h9-9-------------|----|

G|-------------------------|----|
D|-------------------------|----|
A|----7-7~-89~-0~-7~----7--|-1x-|
E|-7h9-9-------------7h9-9-|----|

Verse
G|-------------------|----|-------------------|----|
D|-------------------|----|-------------------|----|
A|-77777777-77777778-|-1x-|-99999999-99999987-|-1x-|
E|-------------------|----|-------------------|----|

G|-------------------|----|-------------------|----|
D|-------------------|----|-------------------|----|
A|-00000000-00000000-|-4x-|-77777777-77777----|-1x-|
E|-------------------|----|---------------979-|----|

G|-------------------|----|-------------------|----|
D|-------------------|----|-------------------|----|
A|-77777777-77777778-|-1x-|-99999999-99999987-|-1x-|
E|-------------------|----|-------------------|----|

G|-------------------|----|
D|----------------78-|----|
A|-00000000-000009---|-1x-|
E|-------------------|----|

Pre-chorus
G|------------------------------------------|----|
D|-9-99-7-77777-7-77777-9-99-7-77-6-66------|----|
A|-------------------------------------9-99-|-1x-|
E|------------------------------------------|----|

Chorus
G|------------------------------------|----|
D|------------------------------------|----|
A|-7-77778-9-999999-0-000000-7-777----|-1x-|
E|--------------------------------979-|----|

G|-------------------------------------|----|
D|-------------------------------------|----|
A|-7-77778-9-999999-0-000000-7-77---7--|-1x-|
E|-------------------------------7h9-9-|----|

G|------------------------------------|----|
D|------------------------------------|----|
A|-7-77778-9-999999-0-000000-7-777----|-1x-|
E|--------------------------------979-|----|

G|------------------------------------|----|
D|------------------------------------|----|
A|-7-77778-9-999999-0-000000-7-777777-|-1x-|
E|------------------------------------|----|

Bridge I [2x]
G|-------------------|----|-------------------|----|
D|-------------------|----|----------------67-|----|
A|-------------------|-1x-|-7-777777-7-7779---|-1x-|
E|-9-999999-9-999999-|----|-------------------|----|

G|-------------------|----|-------66----------------|----|
D|-9-999999-9-999999-|----|-77-99----99-77-66-------|----|
A|-------------------|-1x-|-------------------99-77-|-1x-|
E|-------------------|----|-------------------------|----|

Guitar Solo
G|-------------------------------------|----|
D|-------------------------------------|----|
A|-7-77778-9-999999-0-000000-7-77---7--|-4x-|
E|-------------------------------7h9-9-|----|

Verse
Chorus
Bridge I [2x]

Chorus
G|----------------------|----|
D|----------------------|----|
A|-77--99--00--77----7--|-1x-|
E|----------------7h9-9-|----|

G|-----------------------|----|
D|-----------------------|----|
A|-77--99--00--7~-----7--|-1x-|
E|-----------------7h9-9-|----|

G|------------------------------------|----|
D|------------------------------------|----|
A|-7-77778-9-999999-0-000000-7-777----|-1x-|
E|--------------------------------979-|----|

G|------------------------------------|----|
D|--------------------------976-------|----|
A|-7-77778-9-999999----67679---97-----|-1x-|
E|------------------579----------97h9-|----|

Chorus
G|------------------------------------|----|
D|------------------------------------|----|
A|-7-77778-9-999999-0-000000-7-777----|-1x-|
E|--------------------------------979-|----|

G|-------------------------------------|----|
D|-------------------------------------|----|
A|-7-77778-9-999999-0-000000-7-77---7--|-1x-|
E|-------------------------------7h9-9-|----|

G|------------------------------------|----|
D|------------------------------------|----|
A|-7-77778-9-999999-0-000000-7-777----|-1x-|
E|--------------------------------979-|----|

G|------------------------------------|----|
D|--------------------------976-------|----|
A|-7-77778-9-999999----67679---97-----|-1x-|
E|------------------579----------97h9-|----|

Ending Guitar Solo
G|------------------------------------|----|
D|------------------------------------|----|
A|-7-77778-9-999999-0-000000-7-777----|-2x-|
E|--------------------------------979-|----|

G|-------------------------------------|----|
D|-------------------------------------|----|
A|-7-77778-9-999999-0-000000-7-77---7--|-1x-|
E|-------------------------------7h9-9-|----|

G|-----------------------------------------|----|
D|------------------97-7-------------------|----|
A|-7-77778-9-999999---9-97-97---7----7~~~~-|-1x-|
E|------------------------9--979-97h9------|----|
Suggest correction
Give kudos to tab author, rate the tab!
1 2 3 4 5
comments
print report bad tab
guest
You may want to rate the tab now too:
select rating
Wanna post a correction for this tab? Suggest correction