Oops, an error
Loading. Please wait.

Fall Back Down chords

version 4
version 4

Whole song

Interactive

by Rancid
59,343 views 174 this week
5 commentsread comments
1 2 3 4 5
x 32
add to favorites
×
Save as Personal and add changes to this tab that will be seen only by you. Learn more ›
×
You can save this tab as Personal to edit and correct it or add notes. All changes will be seen only by you. Learn more »
launch autoscroll
font size
0
reset
transpose
0
reset
display chords
guitar tuner
edit
Autoscroll
slow
fast
+/-
esc
set tempo
stop
Author
Difficulty
intermediate
Strumming
There is no strumming pattern for this song yet. and get +5 IQ
RANCID
Fall Back Down

[Intro] x2

E   (LetRing)
F#m (LetRing)
A   (LetRing)
E   (LetRing)

 With the Bass line (x2)
               (E)   (F#m) (A)   (E)
e|--------------0-----2-----0-----0--------|
B|--------------0-----2-----2-----0--------|
G|--------------1-----2-----2-----1--------|
D|--------2-----2--3--4-----2-----2--------|
A|--2--4-----4--2-----4-----0-----2--------|
E|--------------0-----2-----0-----0--------|

[Verse 1]

E
Don't worry about me I'm gonna make it alright
F#m
Got my enemies cross haired and in my sight
A
I take a bad situation gonna make it right
E
In the shadows of darkness I stand in the light


[Verse 2]

E
Ya see it's my style and I'll keep true
F#m
I had a bad year but I got through
A
I've been knocked out, beat down, black and blue
B
She's not the one coming back for you
B
She's not the one coming back for you


[Chorus]

E              F#m
If I fall back down
A                    E
You're gonna help me back up again
E              F#m
If I fall back down
A                    E
You're gonna be my friend

E              F#m
If I fall back down
A                    E
You're gonna help me back up again
E              F#m
If I fall back down
A                    E
You're gonna be my friend


[Verse 3]

C#m                             E
It takes disaster to learn a lesson
B                                       A
We're gonna make it through the darkest ni-ah-ah-ights
C#m                             E
Some people pretend to make a reason
B                                       A
But that one make everything alri-ah-ah-ight


[Solo 1]

e|--------------------------------------------------|
B|-9--9-9-9-10--9--9-9-9--10--9--9-9-9--10--9~------|
G|-9--9-9-9-11--9--9-9-9--11--9--9-9-9--11--9~------|
D|--------------------------------------------------|
A|--------------------------------------------------|
E|--------------------------------------------------|

e|----------------------------------------------|
B|-9--9-9-9--10-12-12-12-12--10-12--10-10-9~----|
G|-9--9-9-9--11-13-13-13-13--11-13--11-11-9~----|
D|----------------------------------------------|
A|----------------------------------------------|
E|----------------------------------------------|

e|---------------------------------------------------------------------|
B|-14-14--12-12--10-12--10-10--9--14-14--14/12--10-10--9--9-9-9--9-9---|
G|-14-14--13-13--11-13--11-11--9--14-14--14/13--11-11--9--9-9-9--9-9---|
D|---------------------------------------------------------------------|
A|---------------------------------------------------------------------|
E|---------------------------------------------------------------------|

e|-----------------------------------------------------------------------------|
B|-9--9-9-9--10--9--9-9-9--10-12--12-12-12--10-10-9--9-9-9--9-9~ Sing Verse 4--|
G|-9--9-9-9--11--9--9-9-9--11-13--13-13-13--11-11-9--9-9-9--9-9~ on last 2-----|
D|---------------------------------------------------------------note on solo--| 
A|-----------------------------------------------------------------------------|
E|-----------------------------------------------------------------------------|


[Verse 4]

Well the rest of times they don't faze me
F#m
Even if I look and act pretty crazy
A
On my way down she betrayed me
E
Now my vision is no longer hazy


[Verse 5]

E
See I'm very lucky to have my crew
F#m
They stood by me when she flew
A
I've been knocked out, beat down, black and blue
B
She's not the one coming back for you
B
She's not the one coming back for you


[Chorus]

E              F#m
If I fall back down
A                    E
You're gonna help me back up again
E              F#m
If I fall back down
A                    E
You're gonna be my friend

E              F#m
If I fall back down
A                    E
You're gonna help me back up again
E              F#m
If I fall back down
A                    E
You're gonna be my friend


[Solo 2]

e|-------------------------------------|
B|-------------------------------------|
G|-------------------------------------|
D|-------------------------------------|
A|-7p6h7p6h7~--9-7-6-7~--9-7-7/6~------|
E|-------------------------------------|

e|--------------------------------------|
B|--------------------------------------|
G|--------------------------------------|
D|--------------------------------------|
A|-6-6-6-6/4~---------------------------|
E|--------------------------------------|

e|-------------------------------------|
B|-------------------------------------|
G|-------------------------------------|
D|-------------------------------------|
A|-7p6h7p6h7~--9-7-6-7~--9-7-7/6~------|
E|-------------------------------------|

e|--------------------------------------|
B|--------------------------------------|
G|--------------------------------------|
D|--------------------------------------|
A|-6-6-6-6/4~---------------------------|
E|--------------------------------------|


[Chorus]

E E         F#m F#m
If I fall back down
A A                   E E
You're gonna help me back up again
E E          F#m F#m
If I fall back down
A A                 E E
You're gonna be my friend

E              F#m
If I fall back down
A                    E
You're gonna help me back up again
E              F#m
If I fall back down
A                    E
You're gonna be my friend


[Chorus]

E              F#m
If I fall back down
A                    E
You're gonna help me back up again
E              F#m
If I fall back down
A                    E
You're gonna be my friend

E              F#m
If I fall back down
A                    E
You're gonna help me back up again
E              F#m
If I fall back down
A                    E
You're gonna be my friend

E             F
If I fall back down
A                    E
You're gonna help me back up again
E              F#m
If I fall back down
A                    E
You're gonna be my friend


[Final Solo]

e|-----------------------------------------------------------------|
B|---12-12-12-12-12-12-12/10-10-10-10-10-10-10/9-9-9-9-9-9-9~------|
G|---13-13-13-13-13-13-13/11-11-11-11-11-11-11/9-9-9-9-9-9-9~------|
D|-----------------------------------------------------------------|
A|-----------------------------------------------------------------|
E|-----------------------------------------------------------------|

e|------------------------------------------------------------------|
B|-12-12-12-12-12-12-12-12/10-10-10-10-10-10-10/9-9-9-9-9-9-9~------|
G|-13-13-13-13-13-13-13-13/11-11-11-11-11-11-11/9-9-9-9-9-9-9~------|
D|------------------------------------------------------------------|
A|------------------------------------------------------------------|
E|------------------------------------------------------------------|

e|----------------------------------------------------------------------------------|
B|-10-10-10-10-10--9-9-9--10-10-10-10-10--9-9-9--12-12-12-12--10-10-9~--------------|
G|-11-11-11-11-11--9-9-9--11-11-11-11-11--9-9-9--13-13-13-13--10-10-9~--------------|
D|----------------------------------------------------------------------------------|
A|----------------------------------------------------------------------------------|
E|----------------------------------------------------------------------------------|

e|-------------------------------------------------------------------------------------|
B|-10-10-10-10-10--9-9-9--10-10-10-10-10-10-10-10--9-9-9--10-12-10-10--9--9-9-9--9-9~--|
G|-11-11-11-11-11--9-9-9--11-11-11-11-11-11-11-11--9-9-9--10-13-10-10--9--9-9-9--9-9~--|
D|-------------------------------------------------------------------------------------|
A|-------------------------------------------------------------------------------------|
E|-------------------------------------------------------------------------------------|

************************************

| h  Hammer-on
| p  Pull-off
| /  Slide up
| ~  Vibrato

************************************
Suggest correction
Creating personal tab
Creating personal tab
You can edit any tab online and save it as your Personal.

You can edit, replace or remove any tab part or add personal notes – all changes will be seen only by you.

Personal tabs can be accessed anytime from any device, even offline.
Learn more »
comments
print report bad tab
5 comments total. Showing first comments.
0 reply
Fuse49 194 May 06, 2013 09:54 PM

Great tab, sounds perfect!

0 reply
NateoMacca 16 Apr 17, 2014 08:55 PM

Such a good song and a really good tab. Well done

0 reply
aidan.goodman.1 410 Jun 12, 2014 04:45 PM

Classic! Thanks for the tabs and chords

guest
You may want to rate the tab now too:
select rating
Wanna post a correction for this tab? Suggest correction