Oops, an error
Loading. Please wait.

Ghetto Box Bass Tab

386 views 1 this week
no commentswrite comment
1 2 3 4 5
2 more votes to show rating
add to favorites
launch autoscroll
font size
0
reset
guitar tuner
Autoscroll
slow
fast
+/-
esc
set tempo
stop
Help us to improve Ultimate-Guitar.com Take our survey!
×
Author
Difficulty
intermediate
off of the 1994 album let's go.


Intro:


----------------|
----------------|   x2
--------5-------|
----5-------5---|


Verse:


-----------------------------------------|
-----------------------------------------|   x4
------------55555---777777---------------|
----55555--------------------------------|


Chorus:


-----------------------------------------|
-----------------------------------------|   x2
----555555---777777------------555555----|
----------------------555555-------------|


(play everything over again)


----------------|
----------------|   x2
--------5-------|
----5-------5---|


Solo:


-----------------------------------------|
-----------------------------------------|   x2
----------5--4-----4---7777--5--4-----4--|
----5555--------7------------------7-----|


-----------------------------------------|
-----------------------------------------|   x1
----5555---7777----------5555------------|
------------------5555-------------------|


-----------------------------------------|
------------------7777-------------------|   x1
----5555---7777----------7777------------|
-----------------------------------------|


Verse (bass only):


-----------------------------------------|
----7777---------------------------------|   x4
-----------5555---7777-------------------|
-----------------------------------------|


Chorus:


-----------------------------------------|
-----------------------------------------|   x2
----555555---777777------------555555----|
----------------------555555-------------|


Outro:


----------------|
----------------|   x2
--------5-------|
----5-------5---|
Suggest correction
Give kudos to tab author, rate the tab!
1 2 3 4 5
comments
print report bad tab
guest
You may want to rate the tab now too:
select rating
Wanna post a correction for this tab? Suggest correction