Oops, an error
Loading. Please wait.

Honor Is All We Know Bass Tab

version 2
version 2

Whole song

  • This version is spot on, note for note as it is on... Show more
88 views 9 this week
no commentswrite comment
1 2 3 4 5
3 more votes to show rating
add to favorites
launch autoscroll
font size
0
reset
guitar tuner
Autoscroll
slow
fast
+/-
esc
set tempo
stop
Help us to improve Ultimate-Guitar.com Take our survey!
×
Author
Difficulty
intermediate
About this tab version
This version is spot on, note for note as it is on the album. Formatted for easy reading/memorisation and hand positioning. Was this info helpful? Yes No
RANCID - "Honor Is All We Know"
...Honor Is All We Know, 2014
On Hellcat / Epitaph Records
Written by Tim Armstrong
Bass played by Matt Freeman


[Intro]

G|9-9-8-8-6-6-----|----------------|----------------|----------------|
D|------------9-9-|7-7-6-6-7-7-8-9-|7-7-6-6-7-7-8-9-|----6-6-7-7-8-9-|
A|----------------|----------------|----------------|7-7-------------|
E|----------------|----------------|----------------|----------------|

G|9-9-8-8-6-6-----|----------------|----------------|----------------|
D|------------9-9-|7-7-6-6-7-7-8-9-|7-7-6-6-7-7-8-8-|9-9-7-7-6-6-9-9-|
A|----------------|----------------|----------------|----------------|
E|----------------|----------------|----------------|----------------|

G|----------------|-----------------|------9-9-8-8------|11-11-9-9-8-8------|
D|7-7-6-6-7-7-8-8-|9-9-8-8-9-9-10-10|11-11---------11-11|--------------11-11|
A|----------------|-----------------|-------------------|-------------------|
E|----------------|-----------------|-------------------|-------------------|

G|9-9-8-8-6-6-----|8-8-6-6---------|----------------|----------------|
D|------------9-9-|--------9-9-7-6-|----6-6-7-7-8-9-|----6-6-7-7-8-9-|
A|----------------|----------------|7-7-------------|7-7-------------|
E|----------------|----------------|----------------|----------------|

[Verse 1]

G|----------------|----------------|----------------|----------------|
D|----------------|----------------|----------------|----------------|
A|7-7-7-7-7-7-7-7-|7-7-7-7-7-7-7-7-|----------------|7-7-7-7-7-0-5-6-|
E|----------------|----------------|5-5-5-5-5-5-5-5-|----------------|

G|----------------|----------------|----------------|----------------|
D|----------------|----------------|----------------|----------------|
A|7-7-7-7-7-7-7-7-|7-7-7-7-7-7-7-7-|----------------|----------------|
E|----------------|----------------|5-5-5-5-5-5-5-5-|7-7-7-7-7-7-7-7-|

G|----------------|----------------|----------------|----------------|
D|----------------|----------------|----------------|----------------|
A|----------------|----------------|----------------|----------------|
E|5-5-5-5-5-5-5-5-|7-7-7-7-7-7-7-7-|9-9-9-9-9-9-9-9-|7-7-7-7-7-7-7-7-|

G|----------------|----------------|----------------|----------------|
D|----------------|6-6-6-6-6-6-6-6-|7-7-7-7-7-7-7-6-|----------------|
A|7-7-7-7-7-7-7-7-|----------------|----------------|7-7-7-7-7-7-7-7-|
E|----------------|----------------|----------------|----------------|


[Solo 1]

G|9-9-8-8-6-6-----|----------------|----------------|----------------|
D|------------9-9-|7-7-6-6-7-7-8-9-|7-7-6-6-7-7-8-9-|----6-6-7-7-8-9-|
A|----------------|----------------|----------------|7-7-------------|
E|----------------|----------------|----------------|----------------|

G|9-9-8-8-6-6-----|----------------|----------------|----------------|
D|------------9-9-|7-7-6-6-7-7-8-9-|7-7-6-6-7-7-8-8-|9-9-7-7-6-6-9-9-|
A|----------------|----------------|----------------|----------------|
E|----------------|----------------|----------------|----------------|

G|----------------|-----------------|------9-9-8-8------|11-11-9-9-8-8------|
D|7-7-6-6-7-7-8-8-|9-9-8-8-9-9-10-10|11-11---------11-11|--------------11-11|
A|----------------|-----------------|-------------------|-------------------|
E|----------------|-----------------|-------------------|-------------------|

G|9-9-8-8-6-6-----|8-8-6-6---------|----------------|----------------|
D|------------9-9-|--------9-9-7-6-|9-9-7-7-6-6-----|----6-6-7-7-8-9-|
A|----------------|----------------|------------9-9-|7-7-------------|
E|----------------|----------------|----------------|----------------|

[Verse 2]

G|----------------|----------------|----------------|----------------|
D|----------------|----------------|----------------|----------------|
A|7-7-7-7-7-7-7-7-|7-7-7-7-7-7-7-7-|----------------|7-7-7-7-7-0-5-6-|
E|----------------|----------------|5-5-5-5-5-5-5-5-|----------------|

G|----------------|----------------|----------------|----------------|
D|----------------|----------------|----------------|----------------|
A|7-7-7-7-7-7-7-7-|7-7-7-7-7-7-7-7-|----------------|----------------|
E|----------------|----------------|5-5-5-5-5-5-5-5-|7-7-7-7-7-7-7-7-|

G|----------------|----------------|----------------|----------------|
D|----------------|----------------|----------------|----------------|
A|----------------|----------------|4-4-4-4-4-4-4-4-|----------------|
E|5-5-5-5-5-5-5-5-|7-7-7-7-7-7-7-7-|----------------|7-7-7-7-7-7-5-7-|

G|----------------|----------------|----------------|----------------|
D|----------------|6-6-6-6-6-6-6-6-|7-7-7-7-7-7-7-6-|----------------|
A|7-7-7-7-7-7-7-7-|----------------|----------------|7-7-7-7-7-7-7-7-|
E|----------------|----------------|----------------|----------------|

[Solo 2]

G|9-9-8-8-6-6-----|----------------|----------------|----------------|
D|------------9-9-|7-7-6-6-7-7-8-9-|7-7-6-6-7-7-8-9-|----6-6-7-7-8-9-|
A|----------------|----------------|----------------|7-7-------------|
E|----------------|----------------|----------------|----------------|

G|9-9-8-8-6-6-----|----------------|----------------|----------------|
D|------------9-9-|7-7-6-6-7-7-8-9-|7-7-6-6-7-7-8-8-|9-9-7-7-6-6-9-9-|
A|----------------|----------------|----------------|----------------|
E|----------------|----------------|----------------|----------------|

G|----------------|-----------------|------9-9-8-8------|11-11-9-9-8-8------|
D|7-7-6-6-7-7-8-8-|9-9-8-8-9-9-10-10|11-11---------11-11|--------------11-11|
A|----------------|-----------------|-------------------|-------------------|
E|----------------|-----------------|-------------------|-------------------|

G|9-9-8-8-6-6-----|8-8-6-6---------|----------------|----------------|
D|------------9-9-|--------9-9-7-6-|7-7-6-6-7-7-8-9-|----6-6-7-7-8-9-|
A|----------------|----------------|----------------|7-7-------------|
E|----------------|----------------|----------------|----------------|

[Verse 3]

G|----------------|----------------|----------------|----------------|
D|----------------|----------------|----------------|----------------|
A|7-7-7-7-7-7-7-7-|7-7-7-7-7-7-7-7-|----------------|7-7-7-7-7-0-5-6-|
E|----------------|----------------|5-5-5-5-5-5-5-5-|----------------|

G|----------------|----------------|----------------|----------------|
D|----------------|----------------|----------------|----------------|
A|7-7-7-7-7-7-7-7-|7-7-7-7-7-7-7-7-|----------------|----------------|
E|----------------|----------------|5-5-5-5-5-5-5-5-|7-7-7-7-7-7-7-7-|

G|----------------|----------------|----------------|----------------|
D|----------------|----------------|----------------|----------------|
A|----------------|----------------|4-4-4-4-4-4-4-4-|----------------|
E|5-5-5-5-5-5-5-5-|7-7-7-7-7-7-7-7-|----------------|7-7-7-7-7-7-5-7-|

G|----------------|----------------|----------------|----------------|
D|----------------|6-6-6-6-6-6-6-6-|7-7-7-7-7-7-7-6-|----------------|
A|7-7-7-7-7-7-7-7-|----------------|----------------|7-7-7-7-7-7-7-7R|
E|----------------|----------------|----------------|----------------|

G|----------------|----------------|----------------|----------------|
D|----------------|6-6-6-6-6-6-6-6-|7-7-7-7-7-7-7-6-|----------------|
A|7-7-7-7-7-7-7-7-|----------------|----------------|7-7-7-7-7-7-7-6-|
E|----------------|----------------|----------------|----------------|

[Outro]

G|----------------|----6-6-7-8-9-9-|----------------|----------------|
D|----6-6-7-7-8-8-|9-9-------------|7-7-6-6-7-7-8-9-|----6-6-7-7-8-9-|
A|7-7-------------|----------------|----------------|7-7-------------|
E|----------------|----------------|----------------|----------------|

G|----------------|----6-6-7-8-9-9-|----------------|----7-7-6-6-----|
D|----6-6-7-7-8-8-|9-9-------------|7-7-6-6-7-7-8-8-|9-9---------9-9-|
A|7-7-------------|----------------|----------------|----------------|
E|----------------|----------------|----------------|----------------|

G|----------------|-----------------|------9-9-8-8------|11-11-9-9-8-8------|
D|7-7-6-6-7-7-8-8-|9-9-8-8-9-9-10-10|11-11---------11-11|--------------11-11|
A|----------------|-----------------|-------------------|-------------------|
E|----------------|-----------------|-------------------|-------------------|

G|9-9-8-8-6-6-----|8-8-6-6---------|----------------|----------------|
D|------------9-9-|--------9-9-7-6-|7-7-6-6-7-7-8-9-|----------------|
A|----------------|----------------|----------------|7---\-----------|
E|----------------|----------------|----------------|----------------|



************************************

| \  Slide down

************************************
Suggest correction
Give kudos to tab author, rate the tab!
1 2 3 4 5
comments
print report bad tab
guest
You may want to rate the tab now too:
select rating
Wanna post a correction for this tab? Suggest correction