Oops, an error
Loading. Please wait.

Hyena Bass Tab

version 1
version 1

Whole song

Interactive

9,116 views 6 this week
2 commentsread comments
1 2 3 4 5
accurate
x 9
add to favorites
launch autoscroll
font size
0
reset
guitar tuner
Tab Pro tools
  • play this tab
  • loop segment
  • change instrument
  • show fretboard
  • metronome
×
Best way to learn
"Hyena"
Autoscroll
slow
fast
+/-
esc
set tempo
stop

    From: robin@kwic.com (.)
    To: dwm3@po.cwru.edu
    Subject: basstabs
    Date: Sat, 11 Jan
    
    Hyena
    by RANCID

    Intro:

    G:------------------------------------------------------------------
    D:------0-1-0----------0-1-0---------0-1-0---------------3----------
    A:--1-3-------3-1--1-3-------3-1--3-1------3-1-3-2-3-4-5---5-4-3-3-1
    E:3---------------3--------------3----------------------------------

    Verse:

    G:------------------------
    D:--5-3-------------------
    A:------5-2-2-3-3-2-2-3-3-Repeat until Chorus
    E:3-----------------------

    Chorus:

    G:-------------------------------------------------------------
    D:------------------------3-3-3---3-3-3-3----------------------
    A:--------3-3-3-2-1-1-1-3-------3---------3-3-3-3-6-5-3-1-0----
    E:1-1-1-1---------------------------------------------------3-1         

    3rd Verse:

    G:----------------
    D:--------1-1-----
    A:------------1-3-
    E:1-1-1-1---------Repeat until below

    "Who can I trust when I'm taught to take and not give?" part

    G:-------------------------------
    E:1-1-1-1-1-3-1------------------
    D:--------------3-1-1-1-1-1-2-2-3
    A:-------------------------------Play chorus during guitar thing,
    then back to first verse Figured out and written by Fidget (bassist of Half
    Moon) Check out his link in Benji's link section!!!

      
comments
print report bad tab
2 comments total.
0 reply
Zombiefink wrote on August 9 2014, 10:37 am

Pretty well spot on, 'cept for the into. Here's the way Matt Plays it..

G:--------------------------------------------------------------------
D:-----------------------------------------------------------333------
A:----3-5-6-5-3--------3-5-6-5-3--------3-5-6-5-3---3-2-3-4-5----5-3--
E:/3-6-----------6--3-6-----------6--3-6-----------6----------------3-

0 reply
Zombiefink wrote on August 9 2014, 12:00 pm, edited at 12:02 pm

G:-----------------------------
D:-----------------------------
A:-------3-5-6-66-53------
E:/3-6------------------6----

It also changes once the guitars and drums come in to this..

I want to post or [tab]
guest
You may want to rate the tab now too:
select rating
Please do not post tabs as comments. Select "correction" instead!