Oops, an error
Loading. Please wait.

Hyena Tab

version 1
version 1

Whole song

Interactive

4,060 views 1 this week
3 commentsread comments
1 2 3 4 5
please rate
add to favorites
launch autoscroll
font size
0
reset
how to read this tab
guitar tuner
Autoscroll
slow
fast
+/-
esc
set tempo
stop
Help us to improve Ultimate-Guitar.com Take our survey!
×
Contributor
Difficulty
novice
Band: Rancid
Song: Hyena
Albm: Rancid '93

Intro (second half of bass intro):
|--------------------------------|
|--------------------------------|
|---------------3-3-3-3-5-5-5-5--|
|-5-------------3-3-3-3-5-5-5-5--|
|-5-------------1-1-1-1-3-3-3-3--|
|-3--let ring--------------------|

Riff:
|-------..X3...------|--------------------|
|--------------------|--------------------|
|-----------8-8-8-8--|--5-5-5-5--7-7-7-7--|
|--5-5-5-5--8-8-8-8--|--5-5-5-5--7-7-7-7--|
|--5-5-5-5--6-6-6-6--|--3-3-3-3--5-5-5-5--|
|--3-3-3-3-----------|--------------------|

Verse:
|-----------------------|
|-----------------------|
|----------x-4/5-4/5-4--|
|--5-------x-4/5-4/5-4--|
|--5-------x-2/3-2/3-2--|
|--3--------------------| repeat lots of times

Chorus:
|--------------------------------------|
|--------------------------------------|
|-----------5-5-5-5--3-3-3-3-----------|
|--3-3-3-3--5-5-5-5--3-3-3-3--3-3-3-3--|
|--3-3-3-3--3-3-3-3--1-1-1-1--3-3-3-3--|
|--1-1-1-1--------------------1-1-1-1--|

Interlude ("Everytime I turn around...":
|-------------------------------------|
|-------------------*-*-*-*-----------|
|--*-*-*-*-*-*-*-*--8-8-8-8--*-*-*-*--|
|--3-3-3-3-3-3-3-3--8-8-8-8--8-8-8-8--|
|--3-3-3-3-3-3-3-3--6-6-6-6--8-8-8-8--|
|--1-1-1-1-1-1-1-1-----------6-6-6-6--|

"Who can I trust..."
|---------------------|
|---------------------|
|--8------------------|
|--8--------8---------|
|--6--------8---------|
|-----------6---------|

Solo (chorus played underneath):
|----------------------------|------------------------------|
|--5b-5b-5b-5b-5b-4-5-4-1----|---------------5--------------|
|--5b-5b-5b-5b-5b-4-5-4-1-3--|-------1-3-4-3---4-3-1---1----|
|-------------------------3--|-3-1h3-----------------3---3--|
|----------------------------|------------------------------|
|----------------------------|------------------------------|

|------------------------------------------------|
|------------------------------------------------|
|--4-5b-5b-5b-3-4b-4b-4b-1-3b-3b-3b-3-4b-4b-4b-3-|
|------------------------------------------------|
|------------------------------------------------|
|------------------------------------------------|

|--------------------------------|
|--------------------------------|
|--5-4-3-1---1-3-5-3h5p3-3-1-----|
|----------3-----------------3~--|
|--------------------------------|
|--------------------------------|

Bit After 3rd Verse ("And there's nothing you can say...":
|Guitar 1
|----7-----------7------|---------------------\
|--------------6--------|---------------------\
|--5---------5----------|--3b---1----3b-1-----\
|-----------------------|-----------------3---\  pick slide
|-----------------------|---------------------\
|-----------------------|---------------------\
|Guitar 2
|-----------------------|---------------------\
|-----------------------|---------------------\
|-------5----3----------|-------5----3--------\
|--3----5----3----3-----|--3----5----3----3---\
|--3----3----1----3-----|--3----3----1----3---\
|--1--------------1-----|--1--------------1---\

Ending:
|-------------------------------------|
|-------------------------------------|
|-------5----3------------------------|
|--3----5----3----3----3--------------|
|--3----3----1----3----3--------------|
|--1--------------1----1-----let ring-|

Thats it. I think its pretty close to perfect.
I hope the solo is easy enough to understand.
Tabbed by owen_b123@hotmail.com
Rate
comments
We did not receive enough feedback on this tab! Please rate:
print report bad tab
1 2 3 4 5
3 comments total.
0 reply
afropunkx 136 wrote on June 24 2009, 11:21 am

upside down?????????/

-1 reply
old-skool-ghoul 255 wrote on September 15 2009, 12:15 pm

what do u mean upside down, u tard

0 reply
afropunkx 136 wrote on February 6 2010, 08:53 am

no ****ing idea, not sure why i made that comment :/

I want to post or [tab]
guest
You may want to rate the tab now too:
select rating
Please do not post tabs as comments. Select "correction" instead!