Oops, an error
Loading. Please wait.

Hyena Bass Tab

version 2
version 2

Whole song

Interactive

1,420 views 3 this week
no commentswrite comment
1 2 3 4 5
please rate
add to favorites
launch autoscroll
font size
0
reset
guitar tuner
Autoscroll
slow
fast
+/-
esc
set tempo
stop
Help us to improve Ultimate-Guitar.com Take our survey!
×
Contributor
Hyena by Rancid
by fidget, corrections by poncho phil

fidget's tab was pretty good but now the intro sounds better and
i made some of the other parts easier to play

Intro:

    G:--------------------------------------------------------------------
    D:--------*--------------*--------------*-----------------3-----------
    A:--1-3-5-5-5-3-1--1-3-5-5-5-3-1--3-1-5-5-5-3-1-3-2-3-4-5---5-4-3-3-1-
    E:3---------------3--------------3------------------------------------
    (the * above the Ds means bend it slightly)

    Verse:

    G:------------------------
    D:--5-3-0-----------------
    A:--------2-2-3-3-2-2-3-3- Repeat until Chorus
    E:3-----------------------

    Chorus:

    G:---------------------------------------------------------------
    D:-------------------------------------------------1-0-----------
    A:--------3-3-3-2-1-1-1-1------------------3-3-3-3-----3-1-0-----
    E:1-1-1-1-----------------1-1-1-1-1-1-1-1--------------------3-1-         

    3rd Verse:

    G:----------------
    D:--------1-1-----
    A:------------1-3-
    E:1-1-1-1--------- x3

    G:------------
    D:--------1---
    A:----------1-
    E:1-1-1-1----- on the fourth time through play this



    "Who can I trust when I'm taught to take and not give?" part

    G:---------------------------
    E:1-1-1-1-1-3-1--------------
    D:--------------3-1-1-1-1-1--
    A:---------------------------Play chorus during guitar thing,

    end with this
    G:------------------
    E:------------------
    D:----3---1---3-----
    A:1---------------1-
comments
We did not receive enough feedback on this tab! Please rate:
print report bad tab
1 2 3 4 5
I want to post or [tab]
guest
You may want to rate the tab now too:
select rating
Please do not post tabs as comments. Select "correction" instead!