Oops, an error
Loading. Please wait.

I Aint Worried Bass Tab

500 views 1 this week
no commentswrite comment
1 2 3 4 5
please rate
add to favorites
launch autoscroll
font size
0
reset
guitar tuner
Tab Pro tools
  • play this tab
  • loop segment
  • change instrument
  • show fretboard
  • metronome
Autoscroll
slow
fast
+/-
esc
set tempo
stop
RANCID - I AINT WORRIED
LET THE DOMINOES FALL: 2009
TABBED BY: JOSH HUGHFF
TUNING: STANDARD E.A.D.G


INTRO: X 4

G:|-------------------|
D:|-------------------|
A:|---------7777----7-|
E:|55555555------555--|


CHORUS: 

G:|------------------------------------|
D:|---------------------------77-------|
A:|55555557----------77777777---55--77-|
E:|---------55555555--------------55---|

G:|------------------------------------|
D:|------------------------------------|
A:|55555557----------77777777----------|
E:|---------55555555----------55555555-|

G:|---------------9----|
D:|----------9---------|
A:|-----7--------------|
E:|0-------------------|


TIM'S VERSE: NO BASS


CHORUS:

G:|------------------------------------|
D:|---------------------------77-------|
A:|55555557----------77777777---55--77-|
E:|---------55555555--------------55---|

G:|------------------------------------|
D:|------------------------------------|
A:|55555557----------77777777----------|
E:|---------55555555----------55555555-|

G:|---------------9----|
D:|----------9---------|
A:|-----7--------------|
E:|0-------------------|


LAR'S VERSE: NO BASS


CHROUS:

G:|------------------------------------|
D:|---------------------------77-------|
A:|55555557----------77777777---55--77-|
E:|---------55555555--------------55---|

G:|------------------------------------|
D:|------------------------------------|
A:|55555557----------77777777----------|
E:|---------55555555----------55555555-|

G:|---------------9----|
D:|----------9---------|
A:|-----7--------------|
E:|0-------------------|


MATT'S VERSE: X 4

G:|-------------------|
D:|-------------------|
A:|---------7777----7-|
E:|55555555------555--|


CHORUS:

G:|------------------------------------|
D:|---------------------------77-------|
A:|55555557----------77777777---55--77-|
E:|---------55555555--------------55---|

G:|------------------------------------|
D:|------------------------------------|
A:|55555557----------77777777----------|
E:|---------55555555----------55555555-|

G:|---------------9----|
D:|----------9---------|
A:|-----7--------------|
E:|0-------------------|


BRIDGE: FOLLOW DRUMS

G:|-----------|-----------|--------------|-----------|
D:|-----------|-----------|--------------|-----------|
A:|-----------|-----------|5-7-77-7-77-7-|7-77-7-77-7|
E:|5-5-5-55-5-|5-55-5-55-5|--------------|-----------|


G:|--------------|-----------|--------------|-------------|
D:|5-7-77-7-77-7-|7-77-7-77-7|--------------|------------7|
A:|--------------|-----------|5-7-77-7-77-7-|7-77-7-77-7--|
E:|--------------|-----------|--------------|-------------|


GAP: X 4

G:|-------------------|
D:|-------------------|
A:|---------7777----7-|
E:|55555555------555--|


CHROUS:

G:|------------------------------------|
D:|---------------------------77-------|
A:|55555557----------77777777---55--77-|
E:|---------55555555--------------55---|

G:|------------------------------------|
D:|------------------------------------|
A:|55555557----------77777777----------|
E:|---------55555555----------55555555-|


ENDING: X 3
 
                       4TH TIME DO THIS
G:|-------------------|-------------------|
D:|-------------------|-------------------|
A:|---------7777----7-|---------7777------|
E:|55555555------555--|55555555------5----|


THATS IT. THOUGHT THIS SONG NEEDED TO BE UPLOADED SOONER THAN LATER, LOVE THIS SONG. CHEERS!!! 
comments
We did not receive enough feedback on this tab! Please rate:
print report bad tab
1 2 3 4 5
I want to post or [tab]
guest
You may want to rate the tab now too:
select rating
Please do not post tabs as comments. Select "correction" instead!