Oops, an error
Loading. Please wait.

I Am Forever Bass Tab

version 2
version 2

Whole song

334 views 1 this week
no commentswrite comment
1 2 3 4 5
3 more votes to show rating
add to favorites
launch autoscroll
font size
0
reset
guitar tuner
Autoscroll
slow
fast
+/-
esc
set tempo
stop
Help us to improve Ultimate-Guitar.com Take our survey!
×
Author
- Rancid - I Am Forever
- Tabbed by: Pacu, bassist from a brazilian punk rock band called PunkAss.

__________
Intro [00:11]
G|--------------------------------------------------------------------------|----|
D|--------------------------------------------------------------------------|----|
A|-1-1111-1111-1-4-4444-4444-4-9-9999-9999-9-99/1414h1515h1616p1515p1414\99-|-1x-|
E|--------------------------------------------------------------------------|----|

G|----------------------------------------------------------|----|
D|----------------------------------------------------------|----|
A|-1-1111-1111-1-4-4444-4444-4-9-9999-9999-9-9999-9999-9--2-|-4x-|
E|----------------------------------------------------------|----|

Verse [2x]
G|--------------|----|
D|--------------|----|
A|-2-2222-5/-9\-|-4x-|
E|--------------|----|

G|---------------|----|
D|------9-7-7779-|----|
A|-7-777---------|-4x-|
E|---------------|----|

Stop
G|---|----|
D|---|----|
A|-9-|-1x-|
E|---|----|

Ending Verse
G|--------------|----|
D|--------------|----|
A|-2-2222-5/-9\-|-4x-|
E|--------------|----|

G|---------------|----|
D|------9-7-7779-|----|
A|-7-777---------|-8x-|
E|---------------|----|

G|----|----|
D|----|----|
A|-7\-|-1x-|
E|----|----|
Suggest correction
Give kudos to tab author, rate the tab!
1 2 3 4 5
comments
print report bad tab
guest
You may want to rate the tab now too:
select rating
Wanna post a correction for this tab? Suggest correction