Oops, an error
Loading. Please wait.

Indestructible Bass Tab

version 1
version 1

Whole song

1,515 views 1 this week
no commentswrite comment
1 2 3 4 5
please rate
add to favorites
launch autoscroll
font size
0
reset
guitar tuner
Autoscroll
slow
fast
+/-
esc
set tempo
stop
Help us to improve Ultimate-Guitar.com Take our survey!
×
Author
Difficulty
intermediate
==============================1.Indestructable==============================

--------------------------------------------------------------------|
--------------------------------------------------------------4--47-|
-------------------------------5-55-555-----------------5-5555--5---|
----5-5555-5-5555-5-5555-4-4444---------2-222-2-2222-22-------------|

---------------------------------------------------------------------|
---------------------------------------------------------------------|
-----------4-47----------3-3-6------------------5-55-555-54245-554/5-|
-5-5555555--5---4-4444444-4----2-22-222-2-22-222---------------------|

-----------------|
-----------------|
-7-7------7-7----|
-----------------|

[--------------------------------------]
[--------------------------------------]
[-5-55-555---------2-22-2/4-----------4]    Four Times
[----------5-55-555---------5-55-55-7--]

[--------------------------------------]
[--------------------------------------]
[-5-55-555---------2-22-2/4-----------4]    Four Times
[----------5-55-555---------5-55-55-7--]

--------------------------------------------------------------|
---------------------------------------------------------4-47-|
-----------4-47----------3-3-6------------------5-55-555--5---|
-5-5555555--5---4-4444444-4----2-22-222-2-22-222--------------|

---------------------------------------------------------------------|
---------------------------------------------------------------------|
-----------4-47----------3-3-6------------------5-55-555-54245-554/5-|
-5-5555555--5---4-4444444-4----2-22-222-2-22-222---------------------|

------------------|
------------------|
-7-7------7-7-----|
------------------|

[--------------------------------------]
[--------------------------------------]
[-5-55-555---------2-22-2/4-----------4]    Four Times
[----------5-55-555---------5-55-55-7--]

[--------------------------------------]
[--------------------------------------]
[-5-55-555---------2-22-2/4-----------4]    Four Times
[----------5-55-555---------5-55-55-7--]

--------------------------------------------------------------|
---------------------------------------------------------4-47-|
-----------4-47----------3-3-6------------------5-55-555--5---|
-5-5555555--5---4-4444444-4----2-22-222-2-22-222--------------|

---------------------------------------------------------------------|
---------------------------------------------------------------------|
-----------4-47----------3-3-6------------------5-55-555-54245-554/5-|
-5-5555555--5---4-4444444-4----2-22-222-2-22-222---------------------|

---------------------------------|
---------------------------------|
-7-7------7-7----7-7-----7-7-----|
-------------------------------5-|
Suggest correction
Give kudos to tab author, rate the tab!
1 2 3 4 5
comments
print report bad tab
guest
You may want to rate the tab now too:
select rating
Please do not post tabs as comments. Select "correction" instead!